  0
SECTION
  2
HEADER
  9
$ACADVER
  1
AC1024
  9
$ACADMAINTVER
 70
     6
  9
$DWGCODEPAGE
  3
ANSI_1252
  9
$INSBASE
 10
0.0
 20
0.0
 30
0.0
  9
$EXTMIN
 10
-262.500018
 20
-371.249941
 30
0.000000
  9
$EXTMAX
 10
237.500023
 20
346.250078
 30
0.000000
  9
$LIMMIN
 10
0.0
 20
0.0
  9
$LIMMAX
 10
420.0
 20
297.0
  9
$ORTHOMODE
 70
     0
  9
$REGENMODE
 70
     1
  9
$FILLMODE
 70
     1
  9
$QTEXTMODE
 70
     0
  9
$MIRRTEXT
 70
     0
  9
$LTSCALE
 40
25.000000
  9
$ATTMODE
 70
     1
  9
$TEXTSIZE
 40
2.5
  9
$TRACEWID
 40
1.0
  9
$TEXTSTYLE
  7
Standard
  9
$CLAYER
  8
0
  9
$CELTYPE
  6
ByLayer
  9
$CECOLOR
 62
   256
  9
$CELTSCALE
 40
1.0
  9
$DISPSILH
 70
     0
  9
$DIMSCALE
 40
1.0
  9
$DIMASZ
 40
2.5
  9
$DIMEXO
 40
0.625
  9
$DIMDLI
 40
3.75
  9
$DIMRND
 40
0.0
  9
$DIMDLE
 40
0.0
  9
$DIMEXE
 40
1.25
  9
$DIMTP
 40
0.0
  9
$DIMTM
 40
0.0
  9
$DIMTXT
 40
2.5
  9
$DIMCEN
 40
2.5
  9
$DIMTSZ
 40
0.0
  9
$DIMTOL
 70
     0
  9
$DIMLIM
 70
     0
  9
$DIMTIH
 70
     0
  9
$DIMTOH
 70
     0
  9
$DIMSE1
 70
     0
  9
$DIMSE2
 70
     0
  9
$DIMTAD
 70
     1
  9
$DIMZIN
 70
     8
  9
$DIMBLK
  1

  9
$DIMASO
 70
     1
  9
$DIMSHO
 70
     1
  9
$DIMPOST
  1

  9
$DIMAPOST
  1

  9
$DIMALT
 70
     0
  9
$DIMALTD
 70
     3
  9
$DIMALTF
 40
0.03937007874016
  9
$DIMLFAC
 40
1.0
  9
$DIMTOFL
 70
     1
  9
$DIMTVP
 40
0.0
  9
$DIMTIX
 70
     0
  9
$DIMSOXD
 70
     0
  9
$DIMSAH
 70
     0
  9
$DIMBLK1
  1

  9
$DIMBLK2
  1

  9
$DIMSTYLE
  2
ISO-25
  9
$DIMCLRD
 70
     0
  9
$DIMCLRE
 70
     0
  9
$DIMCLRT
 70
     0
  9
$DIMTFAC
 40
1.0
  9
$DIMGAP
 40
0.625
  9
$DIMJUST
 70
     0
  9
$DIMSD1
 70
     0
  9
$DIMSD2
 70
     0
  9
$DIMTOLJ
 70
     0
  9
$DIMTZIN
 70
     8
  9
$DIMALTZ
 70
     0
  9
$DIMALTTZ
 70
     0
  9
$DIMUPT
 70
     0
  9
$DIMDEC
 70
     2
  9
$DIMTDEC
 70
     2
  9
$DIMALTU
 70
     2
  9
$DIMALTTD
 70
     3
  9
$DIMTXSTY
  7
Standard
  9
$DIMAUNIT
 70
     0
  9
$DIMADEC
 70
     0
  9
$DIMALTRND
 40
0.0
  9
$DIMAZIN
 70
     0
  9
$DIMDSEP
 70
    44
  9
$DIMATFIT
 70
     3
  9
$DIMFRAC
 70
     0
  9
$DIMLDRBLK
  1

  9
$DIMLUNIT
 70
     2
  9
$DIMLWD
 70
    -2
  9
$DIMLWE
 70
    -2
  9
$DIMTMOVE
 70
     0
  9
$DIMFXL
 40
1.0
  9
$DIMFXLON
 70
     0
  9
$DIMJOGANG
 40
0.7853981633974483
  9
$DIMTFILL
 70
     0
  9
$DIMTFILLCLR
 70
     0
  9
$DIMARCSYM
 70
     0
  9
$DIMLTYPE
  6

  9
$DIMLTEX1
  6

  9
$DIMLTEX2
  6

  9
$DIMTXTDIRECTION
 70
     0
  9
$LUNITS
 70
     2
  9
$LUPREC
 70
     4
  9
$SKETCHINC
 40
1.0
  9
$FILLETRAD
 40
10.0
  9
$AUNITS
 70
     0
  9
$AUPREC
 70
     0
  9
$MENU
  1
.
  9
$ELEVATION
 40
0.0
  9
$PELEVATION
 40
0.0
  9
$THICKNESS
 40
0.0
  9
$LIMCHECK
 70
     0
  9
$CHAMFERA
 40
10.0
  9
$CHAMFERB
 40
10.0
  9
$CHAMFERC
 40
20.0
  9
$CHAMFERD
 40
0.0
  9
$SKPOLY
 70
     0
  9
$TDCREATE
 40
2452006.439837951
  9
$TDUCREATE
 40
2452006.356504618
  9
$TDUPDATE
 40
2452006.439963946
  9
$TDUUPDATE
 40
2452006.356630613
  9
$TDINDWG
 40
0.0001273843
  9
$TDUSRTIMER
 40
0.0001272685
  9
$USRTIMER
 70
     1
  9
$ANGBASE
 50
0.0
  9
$ANGDIR
 70
     0
  9
$PDMODE
 70
     0
  9
$PDSIZE
 40
0.0
  9
$PLINEWID
 40
0.0
  9
$SPLFRAME
 70
     0
  9
$SPLINETYPE
 70
     6
  9
$SPLINESEGS
 70
     8
  9
$HANDSEED
  5
6A2
  9
$SURFTAB1
 70
     6
  9
$SURFTAB2
 70
     6
  9
$SURFTYPE
 70
     6
  9
$SURFU
 70
     6
  9
$SURFV
 70
     6
  9
$UCSBASE
  2

  9
$UCSNAME
  2

  9
$UCSORG
 10
0.0
 20
0.0
 30
0.0
  9
$UCSXDIR
 10
1.0
 20
0.0
 30
0.0
  9
$UCSYDIR
 10
0.0
 20
1.0
 30
0.0
  9
$UCSORTHOREF
  2

  9
$UCSORTHOVIEW
 70
     0
  9
$UCSORGTOP
 10
0.0
 20
0.0
 30
0.0
  9
$UCSORGBOTTOM
 10
0.0
 20
0.0
 30
0.0
  9
$UCSORGLEFT
 10
0.0
 20
0.0
 30
0.0
  9
$UCSORGRIGHT
 10
0.0
 20
0.0
 30
0.0
  9
$UCSORGFRONT
 10
0.0
 20
0.0
 30
0.0
  9
$UCSORGBACK
 10
0.0
 20
0.0
 30
0.0
  9
$PUCSBASE
  2

  9
$PUCSNAME
  2

  9
$PUCSORG
 10
0.0
 20
0.0
 30
0.0
  9
$PUCSXDIR
 10
1.0
 20
0.0
 30
0.0
  9
$PUCSYDIR
 10
0.0
 20
1.0
 30
0.0
  9
$PUCSORTHOREF
  2

  9
$PUCSORTHOVIEW
 70
     0
  9
$PUCSORGTOP
 10
0.0
 20
0.0
 30
0.0
  9
$PUCSORGBOTTOM
 10
0.0
 20
0.0
 30
0.0
  9
$PUCSORGLEFT
 10
0.0
 20
0.0
 30
0.0
  9
$PUCSORGRIGHT
 10
0.0
 20
0.0
 30
0.0
  9
$PUCSORGFRONT
 10
0.0
 20
0.0
 30
0.0
  9
$PUCSORGBACK
 10
0.0
 20
0.0
 30
0.0
  9
$USERI1
 70
     0
  9
$USERI2
 70
     0
  9
$USERI3
 70
     0
  9
$USERI4
 70
     0
  9
$USERI5
 70
     0
  9
$USERR1
 40
0.0
  9
$USERR2
 40
0.0
  9
$USERR3
 40
0.0
  9
$USERR4
 40
0.0
  9
$USERR5
 40
0.0
  9
$WORLDVIEW
 70
     1
  9
$SHADEDGE
 70
     3
  9
$SHADEDIF
 70
    70
  9
$TILEMODE
 70
     1
  9
$MAXACTVP
 70
    64
  9
$PINSBASE
 10
0.0
 20
0.0
 30
0.0
  9
$PLIMCHECK
 70
     0
  9
$PEXTMIN
 10
1.000000000000000E+20
 20
1.000000000000000E+20
 30
1.000000000000000E+20
  9
$PEXTMAX
 10
-1.000000000000000E+20
 20
-1.000000000000000E+20
 30
-1.000000000000000E+20
  9
$PLIMMIN
 10
0.0
 20
0.0
  9
$PLIMMAX
 10
420.0
 20
297.0
  9
$UNITMODE
 70
     0
  9
$VISRETAIN
 70
     1
  9
$PLINEGEN
 70
     0
  9
$PSLTSCALE
 70
     1
  9
$TREEDEPTH
 70
  3020
  9
$CMLSTYLE
  2
Standard
  9
$CMLJUST
 70
     0
  9
$CMLSCALE
 40
20.0
  9
$PROXYGRAPHICS
 70
     1
  9
$MEASUREMENT
 70
     1
  9
$CELWEIGHT
370
    -1
  9
$ENDCAPS
280
     0
  9
$JOINSTYLE
280
     0
  9
$LWDISPLAY
290
     0
  9
$INSUNITS
 70
     4
  9
$HYPERLINKBASE
  1

  9
$STYLESHEET
  1

  9
$XEDIT
290
     1
  9
$CEPSNTYPE
380
     0
  9
$PSTYLEMODE
290
     1
  9
$FINGERPRINTGUID
  2

  9
$VERSIONGUID
  2

  9
$EXTNAMES
290
     1
  9
$PSVPSCALE
 40
0.0
  9
$OLESTARTUP
290
     0
  9
$SORTENTS
280
   127
  9
$INDEXCTL
280
     0
  9
$HIDETEXT
280
     1
  9
$XCLIPFRAME
280
     2
  9
$HALOGAP
280
     0
  9
$OBSCOLOR
 70
   257
  9
$OBSLTYPE
280
     0
  9
$INTERSECTIONDISPLAY
280
     0
  9
$INTERSECTIONCOLOR
 70
   257
  9
$DIMASSOC
280
     2
  9
$PROJECTNAME
  1

  9
$CAMERADISPLAY
290
     0
  9
$LENSLENGTH
 40
50.0
  9
$CAMERAHEIGHT
 40
0.0
  9
$STEPSPERSEC
 40
2.0
  9
$STEPSIZE
 40
6.0
  9
$3DDWFPREC
 40
2.0
  9
$PSOLWIDTH
 40
5.0
  9
$PSOLHEIGHT
 40
80.0
  9
$LOFTANG1
 40
1.570796326794896
  9
$LOFTANG2
 40
1.570796326794896
  9
$LOFTMAG1
 40
0.0
  9
$LOFTMAG2
 40
0.0
  9
$LOFTPARAM
 70
     7
  9
$LOFTNORMALS
280
     1
  9
$LATITUDE
 40
37.795
  9
$LONGITUDE
 40
-122.394
  9
$NORTHDIRECTION
 40
0.0
  9
$TIMEZONE
 70
 -8000
  9
$LIGHTGLYPHDISPLAY
280
     1
  9
$TILEMODELIGHTSYNCH
280
     1
  9
$CMATERIAL
347
EC
  9
$SOLIDHIST
280
     1
  9
$SHOWHIST
280
     1
  9
$DWFFRAME
280
     2
  9
$DGNFRAME
280
     0
  9
$REALWORLDSCALE
290
     1
  9
$INTERFERECOLOR
 62
     1
  9
$INTERFEREOBJVS
345
F9
  9
$INTERFEREVPVS
346
F6
  9
$CSHADOW
280
     0
  9
$SHADOWPLANELOCATION
 40
0.0
  0
ENDSEC
  0
SECTION
  2
CLASSES
  0
CLASS
  1
ACDBDICTIONARYWDFLT
  2
AcDbDictionaryWithDefault
  3
ObjectDBX Classes
 90
        0
 91
        1
280
     0
281
     0
  0
CLASS
  1
ACDBPLACEHOLDER
  2
AcDbPlaceHolder
  3
ObjectDBX Classes
 90
        0
 91
        1
280
     0
281
     0
  0
CLASS
  1
LAYOUT
  2
AcDbLayout
  3
ObjectDBX Classes
 90
        0
 91
        2
280
     0
281
     0
  0
CLASS
  1
DICTIONARYVAR
  2
AcDbDictionaryVar
  3
ObjectDBX Classes
 90
        0
 91
        7
280
     0
281
     0
  0
CLASS
  1
TABLESTYLE
  2
AcDbTableStyle
  3
ObjectDBX Classes
 90
     4095
 91
        1
280
     0
281
     0
  0
CLASS
  1
MATERIAL
  2
AcDbMaterial
  3
ObjectDBX Classes
 90
     1153
 91
        3
280
     0
281
     0
  0
CLASS
  1
VISUALSTYLE
  2
AcDbVisualStyle
  3
ObjectDBX Classes
 90
     4095
 91
       16
280
     0
281
     0
  0
CLASS
  1
SCALE
  2
AcDbScale
  3
ObjectDBX Classes
 90
     1153
 91
       17
280
     0
281
     0
  0
CLASS
  1
MLEADERSTYLE
  2
AcDbMLeaderStyle
  3
ACDB_MLEADERSTYLE_CLASS
 90
     4095
 91
        1
280
     0
281
     0
  0
CLASS
  1
CELLSTYLEMAP
  2
AcDbCellStyleMap
  3
ObjectDBX Classes
 90
     1152
 91
        2
280
     0
281
     0
  0
CLASS
  1
EXACXREFPANELOBJECT
  2
ExAcXREFPanelObject
  3
EXAC_ESW
 90
    33793
 91
        0
280
     0
281
     0
  0
CLASS
  1
NPOCOLLECTION
  2
AcDbImpNonPersistentObjectsCollection
  3
ObjectDBX Classes
 90
     1153
 91
        0
280
     0
281
     0
  0
CLASS
  1
LAYER_INDEX
  2
AcDbLayerIndex
  3
ObjectDBX Classes
 90
        0
 91
        0
280
     0
281
     0
  0
CLASS
  1
SPATIAL_INDEX
  2
AcDbSpatialIndex
  3
ObjectDBX Classes
 90
        0
 91
        0
280
     0
281
     0
  0
CLASS
  1
IDBUFFER
  2
AcDbIdBuffer
  3
ObjectDBX Classes
 90
        0
 91
        0
280
     0
281
     0
  0
CLASS
  1
RASTERVARIABLES
  2
AcDbRasterVariables
  3
ISM
 90
        0
 91
        2
280
     0
281
     0
  0
CLASS
  1
IMAGEDEF
  2
AcDbRasterImageDef
  3
ISM
 90
        0
 91
        5
280
     0
281
     0
  0
CLASS
  1
IMAGEDEF_REACTOR
  2
AcDbRasterImageDefReactor
  3
ISM
 90
        1
 91
        5
280
     0
281
     0
  0
CLASS
  1
IMAGE
  2
AcDbRasterImage
  3
ISM
 90
     2175
 91
        5
280
     0
281
     1
  0
CLASS
  1
LWPOLYLINE
  2
AcDbPolyline
  3
ObjectDBX Classes
 90
        0
 91
        0
280
     0
281
     1
  0
CLASS
  1
OLE2FRAME
  2
AcDbOle2Frame
  3
ObjectDBX Classes
 90
        0
 91
        0
280
     0
281
     1
  0
CLASS
  1
HATCH
  2
AcDbHatch
  3
ObjectDBX Classes
 90
        0
 91
        0
280
     0
281
     1
  0
CLASS
  1
XRECORD
  2
AcDbXrecord
  3
ObjectDBX Classes
 90
        0
 91
        9
280
     0
281
     0
  0
CLASS
  1
SORTENTSTABLE
  2
AcDbSortentsTable
  3
ObjectDBX Classes
 90
        0
 91
        0
280
     0
281
     0
  0
CLASS
  1
OBJECT_PTR
  2
CAseDLPNTableRecord
  3
"ASE-LPNTableRecord"
 90
    32769
 91
        0
280
     0
281
     0
  0
CLASS
  1
PLOTSETTINGS
  2
AcDbPlotSettings
  3
ObjectDBX Classes
 90
        0
 91
        0
280
     0
281
     0
  0
CLASS
  1
VBA_PROJECT
  2
AcDbVbaProject
  3
acad
 90
        0
 91
        0
280
     0
281
     0
  0
CLASS
  1
WIPEOUT
  2
AcDbWipeout
  3
WipeOut|AutoCAD Express Tool|expresstools@autodesk.com
 90
    32895
 91
        0
280
     0
281
     1
  0
CLASS
  1
WIPEOUTVARIABLES
  2
AcDbWipeoutVariables
  3
WipeOut|AutoCAD Express Tool|expresstools@autodesk.com
 90
    32768
 91
        0
280
     0
281
     0
  0
CLASS
  1
RTEXT
  2
RText
  3
RText|AutoCAD Express Tool|expresstools@autodesk.com
 90
    32768
 91
        0
280
     0
281
     1
  0
CLASS
  1
ARCALIGNEDTEXT
  2
AcDbArcAlignedText
  3
ATEXT|AutoCAD Express Tool|expresstools@autodesk.com
 90
    32768
 91
        0
280
     0
281
     1
  0
ENDSEC
  0
SECTION
  2
TABLES
  0
TABLE
  2
VPORT
  5
637
100
AcDbSymbolTable
 70
     1
  0
VPORT
  5
638
100
AcDbSymbolTableRecord
100
AcDbViewportTableRecord
  2
*ACTIVE
 70
     0
 10
0.000000
 20
0.000000
 11
1.000000
 21
1.000000
 12
50.000000
 22
50.000000
 13
0.000000
 23
0.000000
 14
1.000000
 24
1.000000
 15
10.000000
 25
10.000000
 16
0.000000
 26
0.000000
 36
1.000000
 17
0.000000
 27
0.000000
 37
0.000000
 40
100.000000
 41
1.387409
 42
50.000000
 43
0.000000
 44
0.000000
 50
0.000000
 51
0.000000
 71
     0
 72
   100
 73
     1
 74
     1
 75
     0
 76
     0
 77
     0
 78
     0
  0
ENDTAB
  0
TABLE
  2
LTYPE
  5
639
330
0
100
AcDbSymbolTable
 70
     9
  0
LTYPE
  5
63A
330
639
100
AcDbSymbolTableRecord
100
AcDbLinetypeTableRecord
  2
ByBlock
 70
     0
  3

 72
    65
 73
     0
 40
0.000000
  0
LTYPE
  5
63B
330
639
100
AcDbSymbolTableRecord
100
AcDbLinetypeTableRecord
  2
ByLayer
 70
     0
  3

 72
    65
 73
     0
 40
0.000000
  0
LTYPE
  5
63C
330
639
100
AcDbSymbolTableRecord
100
AcDbLinetypeTableRecord
  2
CONTINUOUS
 70
     0
  3
Solid line
 72
    65
 73
     0
 40
0.000000
  0
LTYPE
  5
63D
330
639
100
AcDbSymbolTableRecord
100
AcDbLinetypeTableRecord
  2
HIDDEN
 70
     0
  3
_ _ _ _ _ _ _ _ _ _ _ _ _ _ _ _ _ _ _ _ _ _ _
 72
    65
 73
     2
 40
0.375000
 49
0.250000
 74
     0
 49
-0.125000
 74
     0
  0
LTYPE
  5
63E
330
639
100
AcDbSymbolTableRecord
100
AcDbLinetypeTableRecord
  2
DOT
 70
     0
  3
...............................................
 72
    65
 73
     2
 40
0.250000
 49
0.000000
 74
     0
 49
-0.250000
 74
     0
  0
LTYPE
  5
63F
330
639
100
AcDbSymbolTableRecord
100
AcDbLinetypeTableRecord
  2
DASHED
 70
     0
  3
__ __ __ __ __ __ __ __ __ __ __ __ __ __ __ 
 72
    65
 73
     2
 40
0.750000
 49
0.500000
 74
     0
 49
-0.250000
 74
     0
  0
LTYPE
  5
640
330
639
100
AcDbSymbolTableRecord
100
AcDbLinetypeTableRecord
  2
DIVIDE
 70
     0
  3
__ . . __ . . __ . . __ . . __ . . __ . . __
 72
    65
 73
     6
 40
1.250000
 49
0.500000
 74
     0
 49
-0.250000
 74
     0
 49
0.000000
 74
     0
 49
-0.250000
 74
     0
 49
0.000000
 74
     0
 49
-0.250000
 74
     0
  0
LTYPE
  5
641
330
639
100
AcDbSymbolTableRecord
100
AcDbLinetypeTableRecord
  2
DASHDOT
 70
     0
  3
__ . __ . __ . __ . __ . __ . __ . __ . __ . __
 72
    65
 73
     4
 40
1.000000
 49
0.500000
 74
     0
 49
-0.250000
 74
     0
 49
0.000000
 74
     0
 49
-0.250000
 74
     0
  0
LTYPE
  5
642
330
639
100
AcDbSymbolTableRecord
100
AcDbLinetypeTableRecord
  2
BORDER
 70
     0
  3
__ __ . __ __ . __ __ . __ __ . __ __ . __ __
 72
    65
 73
     6
 40
1.750000
 49
0.500000
 74
     0
 49
-0.250000
 74
     0
 49
0.500000
 74
     0
 49
-0.250000
 74
     0
 49
0.000000
 74
     0
 49
-0.250000
 74
     0
  0
LTYPE
  5
643
330
639
100
AcDbSymbolTableRecord
100
AcDbLinetypeTableRecord
  2
CENTER
 70
     0
  3
____ _ ____ _ ____ _ ____ _ ____ _ ____ _ ____
 72
    65
 73
     4
 40
2.000000
 49
1.250000
 74
     0
 49
-0.250000
 74
     0
 49
0.250000
 74
     0
 49
-0.250000
 74
     0
  0
LTYPE
  5
644
330
639
100
AcDbSymbolTableRecord
100
AcDbLinetypeTableRecord
  2
PHANTOM
 70
     0
  3
_____ _ _ _____ _ _ _____ _ _ _____ _ _ ____
 72
    65
 73
     6
 40
2.500000
 49
1.250000
 74
     0
 49
-0.250000
 74
     0
 49
0.250000
 74
     0
 49
-0.250000
 74
     0
 49
0.250000
 74
     0
 49
-0.250000
 74
     0
  0
ENDTAB
  0
TABLE
  2
LAYER
  5
645
100
AcDbSymbolTable
 70
     3
  0
LAYER
  5
646
100
AcDbSymbolTableRecord
100
AcDbLayerTableRecord
  2
0
 70
     0
 62
     7
  6
CONTINUOUS
370
    -3
390
     0
  0
LAYER
  5
647
100
AcDbSymbolTableRecord
100
AcDbLayerTableRecord
  2
SCHRAFF
 70
     0
 62
     7
  6
CONTINUOUS
370
    -3
390
     0
  0
LAYER
  5
648
100
AcDbSymbolTableRecord
100
AcDbLayerTableRecord
  2
Detail
 70
     0
 62
     7
  6
CONTINUOUS
370
    -3
390
     0
  0
ENDTAB
  0
TABLE
  2
STYLE
  5
649
100
AcDbSymbolTable
 70
     2
  0
STYLE
  5
201
100
AcDbSymbolTableRecord
100
AcDbTextStyleTableRecord
  2
STANDARD
 70
     0
 40
0.000000
 41
1.000000
 50
0.000000
 71
     0
 42
3.500000
  3
txt
  4

  0
STYLE
  5
270
100
AcDbSymbolTableRecord
100
AcDbTextStyleTableRecord
  2
Arial
 70
     0
 40
0.000000
 41
1.000000
 50
0.000000
 71
     0
 42
3.500000
  3
Arial.ttf
  4

1001
ACAD
1000
Arial
1071
     0
  0
ENDTAB
  0
TABLE
  2
DIMSTYLE
  5
64A
100
AcDbSymbolTable
 70
     0
100
AcDbDimStyleTable
  0
ENDTAB
  0
TABLE
  2
VIEW
  5
64B
100
AcDbSymbolTable
 70
     0
  0
ENDTAB
  0
TABLE
  2
UCS
  5
64C
100
AcDbSymbolTable
 70
     0
  0
ENDTAB
  0
TABLE
  2
APPID
  5
64D
100
AcDbSymbolTable
 70
     1
  0
APPID
  5
64E
100
AcDbSymbolTableRecord
100
AcDbRegAppTableRecord
  2
ACAD
 70
     0
  0
ENDTAB
  0
TABLE
  2
BLOCK_RECORD
  5
64F
100
AcDbSymbolTable
 70
    83
  0
BLOCK_RECORD
  5
202
102
{ACAD_XDICTIONARY
360
203
102
}
100
AcDbSymbolTableRecord
100
AcDbBlockTableRecord
  2
*Model_Space
  0
BLOCK_RECORD
  5
650
100
AcDbSymbolTableRecord
100
AcDbBlockTableRecord
  2
*Paper_Space
  0
BLOCK_RECORD
  5
651
100
AcDbSymbolTableRecord
100
AcDbBlockTableRecord
  2
*Paper_Space0
  0
BLOCK_RECORD
  5
652
100
AcDbSymbolTableRecord
100
AcDbBlockTableRecord
  2
B
  0
BLOCK_RECORD
  5
653
100
AcDbSymbolTableRecord
100
AcDbBlockTableRecord
  2
B-2
  0
BLOCK_RECORD
  5
654
100
AcDbSymbolTableRecord
100
AcDbBlockTableRecord
  2
B-3
  0
BLOCK_RECORD
  5
655
100
AcDbSymbolTableRecord
100
AcDbBlockTableRecord
  2
B-4
  0
BLOCK_RECORD
  5
656
100
AcDbSymbolTableRecord
100
AcDbBlockTableRecord
  2
B-5
  0
BLOCK_RECORD
  5
657
100
AcDbSymbolTableRecord
100
AcDbBlockTableRecord
  2
B-6
  0
BLOCK_RECORD
  5
658
100
AcDbSymbolTableRecord
100
AcDbBlockTableRecord
  2
B-7
  0
BLOCK_RECORD
  5
659
100
AcDbSymbolTableRecord
100
AcDbBlockTableRecord
  2
B-8
  0
BLOCK_RECORD
  5
65A
100
AcDbSymbolTableRecord
100
AcDbBlockTableRecord
  2
B-9
  0
BLOCK_RECORD
  5
65B
100
AcDbSymbolTableRecord
100
AcDbBlockTableRecord
  2
B-10
  0
BLOCK_RECORD
  5
65C
100
AcDbSymbolTableRecord
100
AcDbBlockTableRecord
  2
B-11
  0
BLOCK_RECORD
  5
65D
100
AcDbSymbolTableRecord
100
AcDbBlockTableRecord
  2
B-12
  0
BLOCK_RECORD
  5
65E
100
AcDbSymbolTableRecord
100
AcDbBlockTableRecord
  2
B-13
  0
BLOCK_RECORD
  5
65F
100
AcDbSymbolTableRecord
100
AcDbBlockTableRecord
  2
B-14
  0
BLOCK_RECORD
  5
660
100
AcDbSymbolTableRecord
100
AcDbBlockTableRecord
  2
B-15
  0
BLOCK_RECORD
  5
661
100
AcDbSymbolTableRecord
100
AcDbBlockTableRecord
  2
B-16
  0
BLOCK_RECORD
  5
662
100
AcDbSymbolTableRecord
100
AcDbBlockTableRecord
  2
B-17
  0
BLOCK_RECORD
  5
663
100
AcDbSymbolTableRecord
100
AcDbBlockTableRecord
  2
B-18
  0
BLOCK_RECORD
  5
664
100
AcDbSymbolTableRecord
100
AcDbBlockTableRecord
  2
B-19
  0
BLOCK_RECORD
  5
665
100
AcDbSymbolTableRecord
100
AcDbBlockTableRecord
  2
B-20
  0
BLOCK_RECORD
  5
666
100
AcDbSymbolTableRecord
100
AcDbBlockTableRecord
  2
B-21
  0
BLOCK_RECORD
  5
667
100
AcDbSymbolTableRecord
100
AcDbBlockTableRecord
  2
B-22
  0
BLOCK_RECORD
  5
668
100
AcDbSymbolTableRecord
100
AcDbBlockTableRecord
  2
B-23
  0
BLOCK_RECORD
  5
669
100
AcDbSymbolTableRecord
100
AcDbBlockTableRecord
  2
B-24
  0
BLOCK_RECORD
  5
66A
100
AcDbSymbolTableRecord
100
AcDbBlockTableRecord
  2
B-25
  0
BLOCK_RECORD
  5
66B
100
AcDbSymbolTableRecord
100
AcDbBlockTableRecord
  2
B-26
  0
BLOCK_RECORD
  5
66C
100
AcDbSymbolTableRecord
100
AcDbBlockTableRecord
  2
B-27
  0
BLOCK_RECORD
  5
66D
100
AcDbSymbolTableRecord
100
AcDbBlockTableRecord
  2
B-28
  0
BLOCK_RECORD
  5
66E
100
AcDbSymbolTableRecord
100
AcDbBlockTableRecord
  2
B-29
  0
BLOCK_RECORD
  5
66F
100
AcDbSymbolTableRecord
100
AcDbBlockTableRecord
  2
B-30
  0
BLOCK_RECORD
  5
670
100
AcDbSymbolTableRecord
100
AcDbBlockTableRecord
  2
B-31
  0
BLOCK_RECORD
  5
671
100
AcDbSymbolTableRecord
100
AcDbBlockTableRecord
  2
B-32
  0
BLOCK_RECORD
  5
672
100
AcDbSymbolTableRecord
100
AcDbBlockTableRecord
  2
B-33
  0
BLOCK_RECORD
  5
673
100
AcDbSymbolTableRecord
100
AcDbBlockTableRecord
  2
B-34
  0
BLOCK_RECORD
  5
674
100
AcDbSymbolTableRecord
100
AcDbBlockTableRecord
  2
B-35
  0
BLOCK_RECORD
  5
675
100
AcDbSymbolTableRecord
100
AcDbBlockTableRecord
  2
B-36
  0
BLOCK_RECORD
  5
676
100
AcDbSymbolTableRecord
100
AcDbBlockTableRecord
  2
B-37
  0
BLOCK_RECORD
  5
677
100
AcDbSymbolTableRecord
100
AcDbBlockTableRecord
  2
B-38
  0
BLOCK_RECORD
  5
678
100
AcDbSymbolTableRecord
100
AcDbBlockTableRecord
  2
B-39
  0
BLOCK_RECORD
  5
679
100
AcDbSymbolTableRecord
100
AcDbBlockTableRecord
  2
B-40
  0
BLOCK_RECORD
  5
67A
100
AcDbSymbolTableRecord
100
AcDbBlockTableRecord
  2
B-41
  0
BLOCK_RECORD
  5
67B
100
AcDbSymbolTableRecord
100
AcDbBlockTableRecord
  2
B-42
  0
BLOCK_RECORD
  5
67C
100
AcDbSymbolTableRecord
100
AcDbBlockTableRecord
  2
B-43
  0
BLOCK_RECORD
  5
67D
100
AcDbSymbolTableRecord
100
AcDbBlockTableRecord
  2
B-44
  0
BLOCK_RECORD
  5
67E
100
AcDbSymbolTableRecord
100
AcDbBlockTableRecord
  2
B-45
  0
BLOCK_RECORD
  5
67F
100
AcDbSymbolTableRecord
100
AcDbBlockTableRecord
  2
B-46
  0
BLOCK_RECORD
  5
680
100
AcDbSymbolTableRecord
100
AcDbBlockTableRecord
  2
B-47
  0
BLOCK_RECORD
  5
681
100
AcDbSymbolTableRecord
100
AcDbBlockTableRecord
  2
B-48
  0
BLOCK_RECORD
  5
682
100
AcDbSymbolTableRecord
100
AcDbBlockTableRecord
  2
B-49
  0
BLOCK_RECORD
  5
683
100
AcDbSymbolTableRecord
100
AcDbBlockTableRecord
  2
B-50
  0
BLOCK_RECORD
  5
684
100
AcDbSymbolTableRecord
100
AcDbBlockTableRecord
  2
B-51
  0
BLOCK_RECORD
  5
685
100
AcDbSymbolTableRecord
100
AcDbBlockTableRecord
  2
B-52
  0
BLOCK_RECORD
  5
686
100
AcDbSymbolTableRecord
100
AcDbBlockTableRecord
  2
B-53
  0
BLOCK_RECORD
  5
687
100
AcDbSymbolTableRecord
100
AcDbBlockTableRecord
  2
B-54
  0
BLOCK_RECORD
  5
688
100
AcDbSymbolTableRecord
100
AcDbBlockTableRecord
  2
B-55
  0
BLOCK_RECORD
  5
689
100
AcDbSymbolTableRecord
100
AcDbBlockTableRecord
  2
B-56
  0
BLOCK_RECORD
  5
68A
100
AcDbSymbolTableRecord
100
AcDbBlockTableRecord
  2
B-57
  0
BLOCK_RECORD
  5
68B
100
AcDbSymbolTableRecord
100
AcDbBlockTableRecord
  2
B-58
  0
BLOCK_RECORD
  5
68C
100
AcDbSymbolTableRecord
100
AcDbBlockTableRecord
  2
B-59
  0
BLOCK_RECORD
  5
68D
100
AcDbSymbolTableRecord
100
AcDbBlockTableRecord
  2
B-60
  0
BLOCK_RECORD
  5
68E
100
AcDbSymbolTableRecord
100
AcDbBlockTableRecord
  2
B-61
  0
BLOCK_RECORD
  5
68F
100
AcDbSymbolTableRecord
100
AcDbBlockTableRecord
  2
B-62
  0
BLOCK_RECORD
  5
690
100
AcDbSymbolTableRecord
100
AcDbBlockTableRecord
  2
B-63
  0
BLOCK_RECORD
  5
691
100
AcDbSymbolTableRecord
100
AcDbBlockTableRecord
  2
B-64
  0
BLOCK_RECORD
  5
692
100
AcDbSymbolTableRecord
100
AcDbBlockTableRecord
  2
B-65
  0
BLOCK_RECORD
  5
693
100
AcDbSymbolTableRecord
100
AcDbBlockTableRecord
  2
B-66
  0
BLOCK_RECORD
  5
694
100
AcDbSymbolTableRecord
100
AcDbBlockTableRecord
  2
B-68
  0
BLOCK_RECORD
  5
695
100
AcDbSymbolTableRecord
100
AcDbBlockTableRecord
  2
B-70
  0
BLOCK_RECORD
  5
696
100
AcDbSymbolTableRecord
100
AcDbBlockTableRecord
  2
B-71
  0
BLOCK_RECORD
  5
697
100
AcDbSymbolTableRecord
100
AcDbBlockTableRecord
  2
B-72
  0
BLOCK_RECORD
  5
698
100
AcDbSymbolTableRecord
100
AcDbBlockTableRecord
  2
B-73
  0
BLOCK_RECORD
  5
699
100
AcDbSymbolTableRecord
100
AcDbBlockTableRecord
  2
B-74
  0
BLOCK_RECORD
  5
69A
100
AcDbSymbolTableRecord
100
AcDbBlockTableRecord
  2
B-75
  0
BLOCK_RECORD
  5
69B
100
AcDbSymbolTableRecord
100
AcDbBlockTableRecord
  2
B-76
  0
BLOCK_RECORD
  5
69C
100
AcDbSymbolTableRecord
100
AcDbBlockTableRecord
  2
B-77
  0
BLOCK_RECORD
  5
69D
100
AcDbSymbolTableRecord
100
AcDbBlockTableRecord
  2
B-78
  0
BLOCK_RECORD
  5
69E
100
AcDbSymbolTableRecord
100
AcDbBlockTableRecord
  2
B-79
  0
BLOCK_RECORD
  5
69F
100
AcDbSymbolTableRecord
100
AcDbBlockTableRecord
  2
B-80
  0
BLOCK_RECORD
  5
6A0
100
AcDbSymbolTableRecord
100
AcDbBlockTableRecord
  2
B-81
  0
BLOCK_RECORD
  5
6A1
100
AcDbSymbolTableRecord
100
AcDbBlockTableRecord
  2
B-82
  0
ENDTAB
  0
ENDSEC
  0
SECTION
  2
BLOCKS
  0
BLOCK
  5
204
100
AcDbEntity
  8
0
100
AcDbBlockBegin
  2
*Model_Space
 70
     0
 10
0.000000
 20
0.000000
 30
0.000000
  3
*Model_Space
  1

  0
ENDBLK
  5
205
100
AcDbEntity
  8
0
100
AcDbBlockEnd
  0
BLOCK
  5
206
100
AcDbEntity
 67
     1
  8
0
100
AcDbBlockBegin
  2
*Paper_Space
 70
     0
 10
0.000000
 20
0.000000
 30
0.000000
  3
*Paper_Space
  1

  0
ENDBLK
  5
207
100
AcDbEntity
 67
     1
  8
0
100
AcDbBlockEnd
  0
BLOCK
  5
208
100
AcDbEntity
 67
     1
  8
0
100
AcDbBlockBegin
  2
*Paper_Space0
 70
     0
 10
0.000000
 20
0.000000
 30
0.000000
  3
*Paper_Space0
  1

  0
ENDBLK
  5
209
100
AcDbEntity
 67
     1
  8
0
100
AcDbBlockEnd
  0
BLOCK
  5
20A
100
AcDbEntity
  8
SCHRAFF
100
AcDbBlockBegin
  2
B
 70
    66
 10
0.000000
 20
0.000000
 30
0.000000
  0
HATCH
  5
20B
100
AcDbEntity
  8
SCHRAFF
 62
     8
440
     0
100
AcDbHatch
 10
0.000000
 20
0.000000
 30
0.000000
210
0.000000
220
0.000000
230
1.000000
  2
SOLID
 70
     1
 71
     1
 91
     1
 92
    18
 72
     1
 73
     0
 93
     5
 10
22.500023
 20
142.250078
 42
0.000000
 10
14.500023
 20
142.250078
 42
0.000000
 10
14.500023
 20
132.250078
 42
0.000000
 10
22.500023
 20
132.250078
 42
-0.400000
 10
22.500023
 20
142.250078
 42
0.000000
 97
     0
 75
     0
 76
     1
 98
     0
  0
ENDBLK
  5
20C
100
AcDbEntity
  8
0
100
AcDbBlockEnd
  0
BLOCK
  5
20D
100
AcDbEntity
  8
SCHRAFF
100
AcDbBlockBegin
  2
B-2
 70
    66
 10
0.000000
 20
0.000000
 30
0.000000
  0
HATCH
  5
20E
100
AcDbEntity
  8
SCHRAFF
 62
     8
440
     0
100
AcDbHatch
 10
0.000000
 20
0.000000
 30
0.000000
210
0.000000
220
0.000000
230
1.000000
  2
SOLID
 70
     1
 71
     1
 91
     1
 92
    18
 72
     1
 73
     0
 93
     9
 10
22.500023
 20
-82.749922
 42
0.000000
 10
14.500023
 20
-82.749922
 42
0.000000
 10
10.500023
 20
-82.749922
 42
0.000000
 10
9.500023
 20
-82.749922
 42
-1.000000
 10
9.500023
 20
-92.749922
 42
0.000000
 10
10.500023
 20
-92.749922
 42
0.000000
 10
14.500023
 20
-92.749922
 42
0.000000
 10
22.500023
 20
-92.749922
 42
-0.395583
 10
22.500023
 20
-82.749922
 42
0.000000
 97
     0
 75
     0
 76
     1
 98
     0
  0
ENDBLK
  5
20F
100
AcDbEntity
  8
0
100
AcDbBlockEnd
  0
BLOCK
  5
210
100
AcDbEntity
  8
SCHRAFF
100
AcDbBlockBegin
  2
B-3
 70
    66
 10
0.000000
 20
0.000000
 30
0.000000
  0
HATCH
  5
211
100
AcDbEntity
  8
SCHRAFF
 62
     8
440
     0
100
AcDbHatch
 10
0.000000
 20
0.000000
 30
0.000000
210
0.000000
220
0.000000
230
1.000000
  2
SOLID
 70
     1
 71
     1
 91
     1
 92
    18
 72
     1
 73
     0
 93
     5
 10
-187.499977
 20
142.250078
 42
0.000000
 10
-177.499977
 20
142.250078
 42
0.000000
 10
-177.499977
 20
150.250078
 42
-0.400000
 10
-187.499977
 20
150.250078
 42
0.000000
 10
-187.499977
 20
142.250078
 42
0.000000
 97
     0
 75
     0
 76
     1
 98
     0
  0
ENDBLK
  5
212
100
AcDbEntity
  8
0
100
AcDbBlockEnd
  0
BLOCK
  5
213
100
AcDbEntity
  8
SCHRAFF
100
AcDbBlockBegin
  2
B-4
 70
    66
 10
0.000000
 20
0.000000
 30
0.000000
  0
HATCH
  5
214
100
AcDbEntity
  8
SCHRAFF
 62
     9
440
     0
100
AcDbHatch
 10
0.000000
 20
0.000000
 30
0.000000
210
0.000000
220
0.000000
230
1.000000
  2
SOLID
 70
     1
 71
     1
 91
     1
 92
    18
 72
     1
 73
     0
 93
     3
 10
9.500023
 20
-92.749922
 42
1.000000
 10
9.500023
 20
-82.749922
 42
1.000000
 10
9.500023
 20
-92.749922
 42
0.000000
 97
     0
 75
     0
 76
     1
 98
     0
  0
ENDBLK
  5
215
100
AcDbEntity
  8
0
100
AcDbBlockEnd
  0
BLOCK
  5
216
100
AcDbEntity
  8
SCHRAFF
100
AcDbBlockBegin
  2
B-5
 70
    66
 10
0.000000
 20
0.000000
 30
0.000000
  0
IMAGE
  5
217
100
AcDbEntity
  8
SCHRAFF
100
AcDbRasterImage
 10
140.969928
 20
-349.249941
 30
0.000000
 11
0.204938
 21
-0.000000
 31
0.000000
 12
-0.000000
 22
0.204938
 32
-0.000000
 13
395.000000
 23
405.000000
340
218
 70
     7
280
     0
281
    50
282
    50
283
     0
360
219
 71
     1
 91
     2
 14
-0.500000
 24
-0.500000
 14
394.500000
 24
404.500000
  0
ENDBLK
  5
21A
100
AcDbEntity
  8
0
100
AcDbBlockEnd
  0
BLOCK
  5
21B
100
AcDbEntity
  8
SCHRAFF
100
AcDbBlockBegin
  2
B-6
 70
    66
 10
0.000000
 20
0.000000
 30
0.000000
  0
HATCH
  5
21C
100
AcDbEntity
  8
SCHRAFF
 62
   253
440
     0
100
AcDbHatch
 10
0.000000
 20
0.000000
 30
0.000000
210
0.000000
220
0.000000
230
1.000000
  2
SOLID
 70
     1
 71
     1
 91
     1
 92
    18
 72
     1
 73
     0
 93
     5
 10
14.500023
 20
-196.249941
 42
0.000000
 10
14.500023
 20
-92.749922
 42
0.000000
 10
10.500023
 20
-92.749922
 42
0.000000
 10
10.500023
 20
-196.249941
 42
0.000000
 10
14.500023
 20
-196.249941
 42
0.000000
 97
     0
 75
     0
 76
     1
 98
     0
  0
HATCH
  5
21D
100
AcDbEntity
  8
SCHRAFF
 62
     9
440
     0
100
AcDbHatch
 10
0.000000
 20
0.000000
 30
0.000000
210
0.000000
220
0.000000
230
1.000000
  2
SOLID
 70
     1
 71
     1
 91
     1
 92
    18
 72
     1
 73
     0
 93
     5
 10
10.500023
 20
-196.249941
 42
0.000000
 10
10.500023
 20
-92.749922
 42
0.000000
 10
8.500023
 20
-92.749922
 42
0.000000
 10
8.500023
 20
-196.249941
 42
0.000000
 10
10.500023
 20
-196.249941
 42
0.000000
 97
     0
 75
     0
 76
     1
 98
     0
  0
HATCH
  5
21E
100
AcDbEntity
  8
SCHRAFF
 62
     9
440
     0
100
AcDbHatch
 10
0.000000
 20
0.000000
 30
0.000000
210
0.000000
220
0.000000
230
1.000000
  2
SOLID
 70
     1
 71
     1
 91
     1
 92
    18
 72
     1
 73
     0
 93
     5
 10
8.500023
 20
-196.249941
 42
0.000000
 10
8.500023
 20
-92.749922
 42
0.000000
 10
2.500023
 20
-92.749922
 42
0.000000
 10
2.500023
 20
-196.249941
 42
0.000000
 10
8.500023
 20
-196.249941
 42
0.000000
 97
     0
 75
     0
 76
     1
 98
     0
  0
ENDBLK
  5
21F
100
AcDbEntity
  8
0
100
AcDbBlockEnd
  0
BLOCK
  5
220
100
AcDbEntity
  8
SCHRAFF
100
AcDbBlockBegin
  2
B-7
 70
    66
 10
0.000000
 20
0.000000
 30
0.000000
  0
HATCH
  5
221
100
AcDbEntity
  8
SCHRAFF
 62
     9
440
     0
100
AcDbHatch
 10
0.000000
 20
0.000000
 30
0.000000
210
0.000000
220
0.000000
230
1.000000
  2
SOLID
 70
     1
 71
     1
 91
     1
 92
    18
 72
     1
 73
     0
 93
     7
 10
-212.500018
 20
136.250078
 42
0.000000
 10
8.500023
 20
136.250078
 42
0.000000
 10
8.500023
 20
-82.749922
 42
0.000000
 10
2.500023
 20
-82.749922
 42
0.000000
 10
2.500023
 20
130.250078
 42
0.000000
 10
-212.500018
 20
130.250078
 42
0.000000
 10
-212.500018
 20
136.250078
 42
0.000000
 97
     0
 75
     0
 76
     1
 98
     0
  0
HATCH
  5
222
100
AcDbEntity
  8
SCHRAFF
 62
     9
440
     0
100
AcDbHatch
 10
0.000000
 20
0.000000
 30
0.000000
210
0.000000
220
0.000000
230
1.000000
  2
SOLID
 70
     1
 71
     1
 91
     1
 92
    18
 72
     1
 73
     0
 93
     7
 10
8.500023
 20
-82.749922
 42
0.000000
 10
8.500023
 20
136.250078
 42
0.000000
 10
-212.500018
 20
136.250078
 42
0.000000
 10
-212.500018
 20
138.250078
 42
0.000000
 10
10.500023
 20
138.250078
 42
0.000000
 10
10.500023
 20
-82.749922
 42
0.000000
 10
8.500023
 20
-82.749922
 42
0.000000
 97
     0
 75
     0
 76
     1
 98
     0
  0
HATCH
  5
223
100
AcDbEntity
  8
SCHRAFF
 62
   253
440
     0
100
AcDbHatch
 10
0.000000
 20
0.000000
 30
0.000000
210
0.000000
220
0.000000
230
1.000000
  2
SOLID
 70
     1
 71
     1
 91
     1
 92
    18
 72
     1
 73
     0
 93
     7
 10
14.500023
 20
142.250078
 42
0.000000
 10
14.500023
 20
-82.749922
 42
0.000000
 10
10.500023
 20
-82.749922
 42
0.000000
 10
10.500023
 20
138.250078
 42
0.000000
 10
-212.500018
 20
138.250078
 42
0.000000
 10
-212.500018
 20
142.250078
 42
0.000000
 10
14.500023
 20
142.250078
 42
0.000000
 97
     0
 75
     0
 76
     1
 98
     0
  0
ENDBLK
  5
224
100
AcDbEntity
  8
0
100
AcDbBlockEnd
  0
BLOCK
  5
225
100
AcDbEntity
  8
SCHRAFF
100
AcDbBlockBegin
  2
B-8
 70
    66
 10
0.000000
 20
0.000000
 30
0.000000
  0
HATCH
  5
226
100
AcDbEntity
  8
SCHRAFF
 62
   161
440
     0
100
AcDbHatch
 10
0.000000
 20
0.000000
 30
0.000000
210
0.000000
220
0.000000
230
1.000000
  2
SOLID
 70
     1
 71
     1
 91
     1
 92
    18
 72
     1
 73
     0
 93
     5
 10
-187.499977
 20
150.250078
 42
0.000000
 10
-187.499977
 20
142.250078
 42
0.000000
 10
-212.500018
 20
142.250078
 42
0.000000
 10
-212.500018
 20
150.250078
 42
0.000000
 10
-187.499977
 20
150.250078
 42
0.000000
 97
     0
 75
     0
 76
     1
 98
     0
  0
ENDBLK
  5
227
100
AcDbEntity
  8
0
100
AcDbBlockEnd
  0
BLOCK
  5
228
100
AcDbEntity
  8
SCHRAFF
100
AcDbBlockBegin
  2
B-9
 70
    66
 10
0.000000
 20
0.000000
 30
0.000000
  0
HATCH
  5
229
100
AcDbEntity
  8
SCHRAFF
 62
   161
440
     0
100
AcDbHatch
 10
0.000000
 20
0.000000
 30
0.000000
210
0.000000
220
0.000000
230
1.000000
  2
SOLID
 70
     1
 71
     1
 91
     1
 92
    18
 72
     1
 73
     0
 93
     5
 10
22.500023
 20
150.250078
 42
0.000000
 10
22.500023
 20
142.250078
 42
0.000000
 10
-177.499977
 20
142.250078
 42
0.000000
 10
-177.499977
 20
150.250078
 42
0.000000
 10
22.500023
 20
150.250078
 42
0.000000
 97
     0
 75
     0
 76
     1
 98
     0
  0
ENDBLK
  5
22A
100
AcDbEntity
  8
0
100
AcDbBlockEnd
  0
BLOCK
  5
22B
100
AcDbEntity
  8
SCHRAFF
100
AcDbBlockBegin
  2
B-10
 70
    66
 10
0.000000
 20
0.000000
 30
0.000000
  0
HATCH
  5
22C
100
AcDbEntity
  8
SCHRAFF
 62
   254
440
     0
100
AcDbHatch
 10
0.000000
 20
0.000000
 30
0.000000
210
0.000000
220
0.000000
230
1.000000
  2
SOLID
 70
     1
 71
     1
 91
     1
 92
    18
 72
     1
 73
     0
 93
     5
 10
-77.499977
 20
48.250078
 42
0.000000
 10
2.500023
 20
48.250078
 42
0.000000
 10
2.500023
 20
50.250078
 42
0.000000
 10
-77.499977
 20
50.250078
 42
0.000000
 10
-77.499977
 20
48.250078
 42
0.000000
 97
     0
 75
     0
 76
     1
 98
     0
  0
ENDBLK
  5
22D
100
AcDbEntity
  8
0
100
AcDbBlockEnd
  0
BLOCK
  5
22E
100
AcDbEntity
  8
SCHRAFF
100
AcDbBlockBegin
  2
B-11
 70
    66
 10
0.000000
 20
0.000000
 30
0.000000
  0
HATCH
  5
22F
100
AcDbEntity
  8
SCHRAFF
 62
    51
440
     0
100
AcDbHatch
 10
0.000000
 20
0.000000
 30
0.000000
210
0.000000
220
0.000000
230
1.000000
  2
SOLID
 70
     1
 71
     1
 91
     1
 92
    18
 72
     1
 73
     0
 93
     5
 10
-212.500018
 20
50.250078
 42
0.000000
 10
2.500023
 20
50.250078
 42
0.000000
 10
2.500023
 20
130.250078
 42
0.000000
 10
-212.500018
 20
130.250078
 42
0.000000
 10
-212.500018
 20
50.250078
 42
0.000000
 97
     0
 75
     0
 76
     1
 98
     0
  0
ENDBLK
  5
230
100
AcDbEntity
  8
0
100
AcDbBlockEnd
  0
BLOCK
  5
231
100
AcDbEntity
  8
SCHRAFF
100
AcDbBlockBegin
  2
B-12
 70
    66
 10
0.000000
 20
0.000000
 30
0.000000
  0
HATCH
  5
232
100
AcDbEntity
  8
SCHRAFF
 62
   254
440
     0
100
AcDbHatch
 10
0.000000
 20
0.000000
 30
0.000000
210
0.000000
220
0.000000
230
1.000000
  2
SOLID
 70
     1
 71
     1
 91
     1
 92
    18
 72
     1
 73
     0
 93
     7
 10
-212.500018
 20
50.250078
 42
0.000000
 10
-77.499977
 20
50.250078
 42
0.000000
 10
-77.499977
 20
-196.249941
 42
0.000000
 10
-82.499977
 20
-196.249941
 42
0.000000
 10
-82.499977
 20
45.250078
 42
0.000000
 10
-212.500018
 20
45.250078
 42
0.000000
 10
-212.500018
 20
50.250078
 42
0.000000
 97
     0
 75
     0
 76
     1
 98
     0
  0
ENDBLK
  5
233
100
AcDbEntity
  8
0
100
AcDbBlockEnd
  0
BLOCK
  5
234
100
AcDbEntity
  8
SCHRAFF
100
AcDbBlockBegin
  2
B-13
 70
    66
 10
0.000000
 20
0.000000
 30
0.000000
  0
HATCH
  5
235
100
AcDbEntity
  8
SCHRAFF
 62
   161
440
     0
100
AcDbHatch
 10
0.000000
 20
0.000000
 30
0.000000
210
0.000000
220
0.000000
230
1.000000
  2
SOLID
 70
     1
 71
     1
 91
     1
 92
    18
 72
     1
 73
     0
 93
     5
 10
14.500023
 20
-92.749922
 42
0.000000
 10
22.500023
 20
-92.749922
 42
0.000000
 10
22.500023
 20
-196.249941
 42
0.000000
 10
14.500023
 20
-196.249941
 42
0.000000
 10
14.500023
 20
-92.749922
 42
0.000000
 97
     0
 75
     0
 76
     1
 98
     0
  0
HATCH
  5
236
100
AcDbEntity
  8
SCHRAFF
 62
   161
440
     0
100
AcDbHatch
 10
0.000000
 20
0.000000
 30
0.000000
210
0.000000
220
0.000000
230
1.000000
  2
SOLID
 70
     1
 71
     1
 91
     1
 92
    18
 72
     1
 73
     0
 93
     5
 10
14.500023
 20
132.250078
 42
0.000000
 10
22.500023
 20
132.250078
 42
0.000000
 10
22.500023
 20
-82.749922
 42
0.000000
 10
14.500023
 20
-82.749922
 42
0.000000
 10
14.500023
 20
132.250078
 42
0.000000
 97
     0
 75
     0
 76
     1
 98
     0
  0
ENDBLK
  5
237
100
AcDbEntity
  8
0
100
AcDbBlockEnd
  0
BLOCK
  5
238
100
AcDbEntity
  8
SCHRAFF
100
AcDbBlockBegin
  2
B-14
 70
    66
 10
0.000000
 20
0.000000
 30
0.000000
  0
HATCH
  5
239
100
AcDbEntity
  8
SCHRAFF
 62
    51
440
     0
100
AcDbHatch
 10
0.000000
 20
0.000000
 30
0.000000
210
0.000000
220
0.000000
230
1.000000
  2
SOLID
 70
     1
 71
     1
 91
     1
 92
    18
 72
     1
 73
     0
 93
     5
 10
-77.499977
 20
48.250078
 42
0.000000
 10
2.500023
 20
48.250078
 42
0.000000
 10
2.500023
 20
-196.249941
 42
0.000000
 10
-77.499977
 20
-196.249941
 42
0.000000
 10
-77.499977
 20
48.250078
 42
0.000000
 97
     0
 75
     0
 76
     1
 98
     0
  0
ENDBLK
  5
23A
100
AcDbEntity
  8
0
100
AcDbBlockEnd
  0
BLOCK
  5
23B
100
AcDbEntity
  8
Detail
100
AcDbBlockBegin
  2
B-15
 70
    66
 10
0.000000
 20
0.000000
 30
0.000000
  0
LWPOLYLINE
  5
23C
100
AcDbEntity
  8
Detail
  6
CONTINUOUS
 62
     6
100
AcDbPolyline
 90
     3
 10
-212.500018
 20
50.250078
 42
0.000000
 10
-77.499977
 20
50.250078
 42
0.000000
 10
-77.499977
 20
-196.249941
 42
0.000000
  0
LWPOLYLINE
  5
240
100
AcDbEntity
  8
Detail
  6
CONTINUOUS
 62
     6
100
AcDbPolyline
 90
     4
 10
-82.499977
 20
-196.249941
 42
0.000000
 10
-82.499977
 20
45.250078
 42
0.000000
 10
-212.500018
 20
45.250078
 42
0.000000
 10
-127.499977
 20
45.250078
 42
0.000000
  0
ENDBLK
  5
245
100
AcDbEntity
  8
0
100
AcDbBlockEnd
  0
BLOCK
  5
246
100
AcDbEntity
  8
SCHRAFF
100
AcDbBlockBegin
  2
B-16
 70
    66
 10
0.000000
 20
0.000000
 30
0.000000
  0
HATCH
  5
247
100
AcDbEntity
  8
SCHRAFF
  6
CONTINUOUS
 62
     9
100
AcDbHatch
 10
0.000000
 20
0.000000
 30
0.000000
210
0.000000
220
0.000000
230
1.000000
  2
_U
 70
     0
 71
     1
 91
     1
 92
    18
 72
     1
 73
     0
 93
     5
 10
-77.499977
 20
48.250078
 42
0.000000
 10
2.500023
 20
48.250078
 42
0.000000
 10
2.500023
 20
-196.249941
 42
0.000000
 10
-77.499977
 20
-196.249941
 42
0.000000
 10
-77.499977
 20
48.250078
 42
0.000000
 97
     0
 75
     0
 76
     0
 52
0.000000
 41
1.000000
 77
     0
 78
     1
 53
90.000000
 43
-0.000000
 44
0.000000
 45
-13.750000
 46
0.000000
 79
     0
 98
     0
  0
ENDBLK
  5
248
100
AcDbEntity
  8
0
100
AcDbBlockEnd
  0
BLOCK
  5
249
100
AcDbEntity
  8
SCHRAFF
100
AcDbBlockBegin
  2
B-17
 70
    66
 10
0.000000
 20
0.000000
 30
0.000000
  0
HATCH
  5
24A
100
AcDbEntity
  8
SCHRAFF
  6
CONTINUOUS
 62
     9
100
AcDbHatch
 10
0.000000
 20
0.000000
 30
0.000000
210
0.000000
220
0.000000
230
1.000000
  2
_U
 70
     0
 71
     1
 91
     1
 92
    18
 72
     1
 73
     0
 93
     7
 10
-212.500018
 20
45.250078
 42
0.000000
 10
-82.499977
 20
45.250078
 42
0.000000
 10
-82.499977
 20
-196.249941
 42
0.000000
 10
-202.499977
 20
-196.249941
 42
0.000000
 10
-202.499977
 20
-74.749922
 42
0.000000
 10
-212.500018
 20
-74.749922
 42
0.000000
 10
-212.500018
 20
45.250078
 42
0.000000
 97
     0
 75
     0
 76
     0
 52
0.000000
 41
1.000000
 77
     0
 78
     1
 53
45.000000
 43
-0.000000
 44
0.000000
 45
-17.677669
 46
17.677670
 79
     0
 98
     0
  0
ENDBLK
  5
24B
100
AcDbEntity
  8
0
100
AcDbBlockEnd
  0
BLOCK
  5
24C
100
AcDbEntity
  8
Detail
100
AcDbBlockBegin
  2
B-18
 70
    66
 10
0.000000
 20
0.000000
 30
0.000000
  0
LWPOLYLINE
  5
24D
100
AcDbEntity
  8
Detail
  6
CONTINUOUS
 62
     2
100
AcDbPolyline
 90
     3
 10
-82.499977
 20
-196.249941
 42
0.000000
 10
-82.499977
 20
45.250078
 42
0.000000
 10
-212.500018
 20
45.250078
 42
0.000000
  0
ENDBLK
  5
251
100
AcDbEntity
  8
0
100
AcDbBlockEnd
  0
BLOCK
  5
252
100
AcDbEntity
  8
Detail
100
AcDbBlockBegin
  2
B-19
 70
    66
 10
0.000000
 20
0.000000
 30
0.000000
  0
LWPOLYLINE
  5
253
100
AcDbEntity
  8
Detail
  6
HIDDEN
 62
     9
100
AcDbPolyline
 90
     3
 10
-212.500018
 20
135.250078
 42
0.000000
 10
7.500023
 20
135.250078
 42
0.000000
 10
7.500023
 20
-82.749922
 42
0.000000
  0
ENDBLK
  5
257
100
AcDbEntity
  8
0
100
AcDbBlockEnd
  0
BLOCK
  5
258
100
AcDbEntity
  8
Detail
100
AcDbBlockBegin
  2
B-20
 70
    66
 10
0.000000
 20
0.000000
 30
0.000000
  0
LWPOLYLINE
  5
259
100
AcDbEntity
  8
Detail
  6
HIDDEN
 62
     9
100
AcDbPolyline
 90
     2
 10
3.500023
 20
107.000078
 42
0.000000
 10
3.500023
 20
32.000078
 42
0.000000
  0
ENDBLK
  5
25C
100
AcDbEntity
  8
0
100
AcDbBlockEnd
  0
BLOCK
  5
25D
100
AcDbEntity
  8
SCHRAFF
100
AcDbBlockBegin
  2
B-21
 70
    66
 10
0.000000
 20
0.000000
 30
0.000000
  0
HATCH
  5
25E
100
AcDbEntity
  8
SCHRAFF
 62
     7
440
     0
100
AcDbHatch
 10
0.000000
 20
0.000000
 30
0.000000
210
0.000000
220
0.000000
230
1.000000
  2
SOLID
 70
     1
 71
     1
 91
     1
 92
    18
 72
     1
 73
     0
 93
     3
 10
-79.499977
 20
-62.749922
 42
1.000000
 10
-80.499977
 20
-62.749922
 42
1.000000
 10
-79.499977
 20
-62.749922
 42
0.000000
 97
     0
 75
     0
 76
     1
 98
     0
  0
LWPOLYLINE
  5
25F
100
AcDbEntity
  8
Detail
  6
CONTINUOUS
 62
     7
100
AcDbPolyline
 90
     2
 10
77.500023
 20
-62.749922
 42
0.000000
 10
-79.999977
 20
-62.749922
 42
0.000000
  0
CIRCLE
  5
262
100
AcDbEntity
  8
Detail
  6
CONTINUOUS
 62
     7
100
AcDbCircle
 10
-79.999977
 20
-62.749922
 40
0.500000
  0
ENDBLK
  5
263
100
AcDbEntity
  8
0
100
AcDbBlockEnd
  0
BLOCK
  5
264
100
AcDbEntity
  8
SCHRAFF
100
AcDbBlockBegin
  2
B-22
 70
    66
 10
0.000000
 20
0.000000
 30
0.000000
  0
HATCH
  5
265
100
AcDbEntity
  8
SCHRAFF
 62
     7
440
     0
100
AcDbHatch
 10
0.000000
 20
0.000000
 30
0.000000
210
0.000000
220
0.000000
230
1.000000
  2
SOLID
 70
     1
 71
     1
 91
     1
 92
    18
 72
     1
 73
     0
 93
     3
 10
-36.999977
 20
-37.749922
 42
1.000000
 10
-37.999977
 20
-37.749922
 42
1.000000
 10
-36.999977
 20
-37.749922
 42
0.000000
 97
     0
 75
     0
 76
     1
 98
     0
  0
CIRCLE
  5
266
100
AcDbEntity
  8
Detail
  6
CONTINUOUS
 62
     7
100
AcDbCircle
 10
-37.499977
 20
-37.749922
 40
0.500000
  0
ENDBLK
  5
267
100
AcDbEntity
  8
0
100
AcDbBlockEnd
  0
BLOCK
  5
268
100
AcDbEntity
  8
SCHRAFF
100
AcDbBlockBegin
  2
B-23
 70
    66
 10
0.000000
 20
0.000000
 30
0.000000
  0
HATCH
  5
269
100
AcDbEntity
  8
SCHRAFF
 62
     7
440
     0
100
AcDbHatch
 10
0.000000
 20
0.000000
 30
0.000000
210
0.000000
220
0.000000
230
1.000000
  2
SOLID
 70
     1
 71
     1
 91
     1
 92
    18
 72
     1
 73
     0
 93
     3
 10
6.000023
 20
12.250078
 42
1.000000
 10
5.000023
 20
12.250078
 42
1.000000
 10
6.000023
 20
12.250078
 42
0.000000
 97
     0
 75
     0
 76
     1
 98
     0
  0
LWPOLYLINE
  5
26A
100
AcDbEntity
  8
Detail
  6
CONTINUOUS
 62
     7
100
AcDbPolyline
 90
     2
 10
78.500023
 20
12.250078
 42
0.000000
 10
5.500023
 20
12.250078
 42
0.000000
  0
CIRCLE
  5
26D
100
AcDbEntity
  8
Detail
  6
CONTINUOUS
 62
     7
100
AcDbCircle
 10
5.500023
 20
12.250078
 40
0.500000
  0
ENDBLK
  5
26E
100
AcDbEntity
  8
0
100
AcDbBlockEnd
  0
BLOCK
  5
26F
100
AcDbEntity
  8
Detail
100
AcDbBlockBegin
  2
B-24
 70
    66
 10
0.000000
 20
0.000000
 30
0.000000
  0
MTEXT
  5
271
100
AcDbEntity
  8
Detail
 62
     7
100
AcDbMText
 10
79.375023
 20
139.750075
 30
0.000000
 40
4.999995
 41
67.304933
 71
     1
 72
     5
  1
elastischer Dichtstoff
  7
Arial
 50
0.000000
  0
ENDBLK
  5
272
100
AcDbEntity
  8
0
100
AcDbBlockEnd
  0
BLOCK
  5
273
100
AcDbEntity
  8
SCHRAFF
100
AcDbBlockBegin
  2
B-25
 70
    66
 10
0.000000
 20
0.000000
 30
0.000000
  0
HATCH
  5
274
100
AcDbEntity
  8
SCHRAFF
 62
     7
440
     0
100
AcDbHatch
 10
0.000000
 20
0.000000
 30
0.000000
210
0.000000
220
0.000000
230
1.000000
  2
SOLID
 70
     1
 71
     1
 91
     1
 92
    18
 72
     1
 73
     0
 93
     3
 10
10.000023
 20
37.250078
 42
1.000000
 10
9.000023
 20
37.250078
 42
1.000000
 10
10.000023
 20
37.250078
 42
0.000000
 97
     0
 75
     0
 76
     1
 98
     0
  0
LWPOLYLINE
  5
275
100
AcDbEntity
  8
Detail
  6
CONTINUOUS
 62
     7
100
AcDbPolyline
 90
     2
 10
77.500023
 20
37.250078
 42
0.000000
 10
9.500023
 20
37.250078
 42
0.000000
  0
CIRCLE
  5
278
100
AcDbEntity
  8
Detail
  6
CONTINUOUS
 62
     7
100
AcDbCircle
 10
9.500023
 20
37.250078
 40
0.500000
  0
ENDBLK
  5
279
100
AcDbEntity
  8
0
100
AcDbBlockEnd
  0
BLOCK
  5
27A
100
AcDbEntity
  8
Detail
100
AcDbBlockBegin
  2
B-26
 70
    66
 10
0.000000
 20
0.000000
 30
0.000000
  0
MTEXT
  5
27B
100
AcDbEntity
  8
Detail
 62
     7
100
AcDbMText
 10
79.375023
 20
114.749979
 30
0.000000
 40
4.999995
 41
62.842437
 71
     1
 72
     5
  1
Gewebe-Eckschutz
  7
Arial
 50
0.000000
  0
ENDBLK
  5
27C
100
AcDbEntity
  8
0
100
AcDbBlockEnd
  0
BLOCK
  5
27D
100
AcDbEntity
  8
SCHRAFF
100
AcDbBlockBegin
  2
B-27
 70
    66
 10
0.000000
 20
0.000000
 30
0.000000
  0
HATCH
  5
27E
100
AcDbEntity
  8
SCHRAFF
 62
     7
440
     0
100
AcDbHatch
 10
0.000000
 20
0.000000
 30
0.000000
210
0.000000
220
0.000000
230
1.000000
  2
SOLID
 70
     1
 71
     1
 91
     1
 92
    18
 72
     1
 73
     0
 93
     3
 10
13.000023
 20
62.250078
 42
1.000000
 10
12.000023
 20
62.250078
 42
1.000000
 10
13.000023
 20
62.250078
 42
0.000000
 97
     0
 75
     0
 76
     1
 98
     0
  0
LWPOLYLINE
  5
27F
100
AcDbEntity
  8
Detail
  6
CONTINUOUS
 62
     7
100
AcDbPolyline
 90
     2
 10
77.500023
 20
62.250078
 42
0.000000
 10
12.500023
 20
62.250078
 42
0.000000
  0
CIRCLE
  5
282
100
AcDbEntity
  8
Detail
  6
CONTINUOUS
 62
     7
100
AcDbCircle
 10
12.500023
 20
62.250078
 40
0.500000
  0
ENDBLK
  5
283
100
AcDbEntity
  8
0
100
AcDbBlockEnd
  0
BLOCK
  5
284
100
AcDbEntity
  8
SCHRAFF
100
AcDbBlockBegin
  2
B-28
 70
    66
 10
0.000000
 20
0.000000
 30
0.000000
  0
HATCH
  5
285
100
AcDbEntity
  8
SCHRAFF
 62
     7
440
     0
100
AcDbHatch
 10
0.000000
 20
0.000000
 30
0.000000
210
0.000000
220
0.000000
230
1.000000
  2
SOLID
 70
     1
 71
     1
 91
     1
 92
    18
 72
     1
 73
     0
 93
     3
 10
19.000023
 20
87.250078
 42
1.000000
 10
18.000023
 20
87.250078
 42
1.000000
 10
19.000023
 20
87.250078
 42
0.000000
 97
     0
 75
     0
 76
     1
 98
     0
  0
LWPOLYLINE
  5
286
100
AcDbEntity
  8
Detail
  6
CONTINUOUS
 62
     7
100
AcDbPolyline
 90
     2
 10
77.500023
 20
87.250078
 42
0.000000
 10
18.500023
 20
87.250078
 42
0.000000
  0
CIRCLE
  5
289
100
AcDbEntity
  8
Detail
  6
CONTINUOUS
 62
     7
100
AcDbCircle
 10
18.500023
 20
87.250078
 40
0.500000
  0
ENDBLK
  5
28A
100
AcDbEntity
  8
0
100
AcDbBlockEnd
  0
BLOCK
  5
28B
100
AcDbEntity
  8
Detail
100
AcDbBlockBegin
  2
B-29
 70
    66
 10
0.000000
 20
0.000000
 30
0.000000
  0
MTEXT
  5
28C
100
AcDbEntity
  8
Detail
 62
     7
100
AcDbMText
 10
79.375023
 20
89.749979
 30
0.000000
 40
4.999995
 41
51.029949
 71
     1
 72
     5
  1
Hartbekleidung 
  7
Arial
 50
0.000000
  0
ENDBLK
  5
28D
100
AcDbEntity
  8
0
100
AcDbBlockEnd
  0
BLOCK
  5
28E
100
AcDbEntity
  8
Detail
100
AcDbBlockBegin
  2
B-30
 70
    66
 10
0.000000
 20
0.000000
 30
0.000000
  0
MTEXT
  5
28F
100
AcDbEntity
  8
Detail
 62
     7
100
AcDbMText
 10
79.375023
 20
64.749979
 30
0.000000
 40
4.999995
 41
44.939955
 71
     1
 72
     5
  1
Verlegemörtel
  7
Arial
 50
0.000000
  0
ENDBLK
  5
290
100
AcDbEntity
  8
0
100
AcDbBlockEnd
  0
BLOCK
  5
291
100
AcDbEntity
  8
Detail
100
AcDbBlockBegin
  2
B-31
 70
    66
 10
0.000000
 20
0.000000
 30
0.000000
  0
LWPOLYLINE
  5
292
100
AcDbEntity
  8
Detail
  6
HIDDEN
 62
     9
100
AcDbPolyline
 90
     2
 10
-20.749977
 20
131.250078
 42
0.000000
 10
-95.749977
 20
131.250078
 42
0.000000
  0
ENDBLK
  5
295
100
AcDbEntity
  8
0
100
AcDbBlockEnd
  0
BLOCK
  5
296
100
AcDbEntity
  8
SCHRAFF
100
AcDbBlockBegin
  2
B-32
 70
    66
 10
0.000000
 20
0.000000
 30
0.000000
  0
HATCH
  5
297
100
AcDbEntity
  8
SCHRAFF
 62
     7
440
     0
100
AcDbHatch
 10
0.000000
 20
0.000000
 30
0.000000
210
0.000000
220
0.000000
230
1.000000
  2
SOLID
 70
     1
 71
     1
 91
     1
 92
    18
 72
     1
 73
     0
 93
     3
 10
18.000050
 20
137.250078
 42
1.000000
 10
17.000050
 20
137.250078
 42
1.000000
 10
18.000050
 20
137.250078
 42
0.000000
 97
     0
 75
     0
 76
     1
 98
     0
  0
CIRCLE
  5
298
100
AcDbEntity
  8
Detail
  6
CONTINUOUS
 62
     7
100
AcDbCircle
 10
17.500050
 20
137.250078
 40
0.500000
  0
LWPOLYLINE
  5
299
100
AcDbEntity
  8
Detail
  6
CONTINUOUS
 62
     7
100
AcDbPolyline
 90
     2
 10
77.500023
 20
137.250078
 42
0.000000
 10
17.500050
 20
137.250078
 42
0.000000
  0
ENDBLK
  5
29C
100
AcDbEntity
  8
0
100
AcDbBlockEnd
  0
BLOCK
  5
29D
100
AcDbEntity
  8
Detail
100
AcDbBlockBegin
  2
B-33
 70
    66
 10
0.000000
 20
0.000000
 30
0.000000
  0
MTEXT
  5
29E
100
AcDbEntity
  8
Detail
 62
     7
100
AcDbMText
 10
79.375023
 20
39.749979
 30
0.000000
 40
4.999995
 41
140.804859
 71
     1
 72
     5
  1
Ausgleichsschicht mit Ceratherm Mörtel DP
  7
Arial
 50
0.000000
  0
ENDBLK
  5
29F
100
AcDbEntity
  8
0
100
AcDbBlockEnd
  0
BLOCK
  5
2A0
100
AcDbEntity
  8
Detail
100
AcDbBlockBegin
  2
B-34
 70
    66
 10
0.000000
 20
0.000000
 30
0.000000
  0
LWPOLYLINE
  5
2A1
100
AcDbEntity
  8
Detail
  6
CONTINUOUS
 62
     7
100
AcDbPolyline
 90
     3
 10
77.500023
 20
162.250078
 42
0.000000
 10
-182.499977
 20
162.250078
 42
0.000000
 10
-182.499977
 20
145.250078
 42
0.000000
  0
ENDBLK
  5
2A5
100
AcDbEntity
  8
0
100
AcDbBlockEnd
  0
BLOCK
  5
2A6
100
AcDbEntity
  8
SCHRAFF
100
AcDbBlockBegin
  2
B-35
 70
    66
 10
0.000000
 20
0.000000
 30
0.000000
  0
HATCH
  5
2A7
100
AcDbEntity
  8
SCHRAFF
 62
     7
440
     0
100
AcDbHatch
 10
0.000000
 20
0.000000
 30
0.000000
210
0.000000
220
0.000000
230
1.000000
  2
SOLID
 70
     1
 71
     1
 91
     1
 92
    18
 72
     1
 73
     0
 93
     3
 10
-181.999977
 20
145.250078
 42
1.000000
 10
-182.999977
 20
145.250078
 42
1.000000
 10
-181.999977
 20
145.250078
 42
0.000000
 97
     0
 75
     0
 76
     1
 98
     0
  0
ENDBLK
  5
2A8
100
AcDbEntity
  8
0
100
AcDbBlockEnd
  0
BLOCK
  5
2A9
100
AcDbEntity
  8
SCHRAFF
100
AcDbBlockBegin
  2
B-36
 70
    66
 10
0.000000
 20
0.000000
 30
0.000000
  0
HATCH
  5
2AA
100
AcDbEntity
  8
SCHRAFF
  6
CONTINUOUS
 62
     9
100
AcDbHatch
 10
0.000000
 20
0.000000
 30
0.000000
210
0.000000
220
0.000000
230
1.000000
  2
_U
 70
     0
 71
     1
 91
     1
 92
    18
 72
     1
 73
     0
 93
     5
 10
2.500023
 20
50.250078
 42
0.000000
 10
2.500023
 20
130.250078
 42
0.000000
 10
-212.500018
 20
130.250078
 42
0.000000
 10
-212.500018
 20
50.250078
 42
0.000000
 10
2.500023
 20
50.250078
 42
0.000000
 97
     0
 75
     0
 76
     0
 52
0.000000
 41
1.000000
 77
     0
 78
     1
 53
90.000000
 43
-0.000000
 44
0.000000
 45
-13.750000
 46
0.000000
 79
     0
 98
     0
  0
ENDBLK
  5
2AB
100
AcDbEntity
  8
0
100
AcDbBlockEnd
  0
BLOCK
  5
2AC
100
AcDbEntity
  8
Detail
100
AcDbBlockBegin
  2
B-37
 70
    66
 10
0.000000
 20
0.000000
 30
0.000000
  0
LWPOLYLINE
  5
2AD
100
AcDbEntity
  8
Detail
  6
CONTINUOUS
 62
     2
100
AcDbPolyline
 90
     3
 10
-212.500018
 20
-74.749922
 42
0.000000
 10
-202.499977
 20
-74.749922
 42
0.000000
 10
-202.499977
 20
-196.249941
 42
0.000000
  0
ENDBLK
  5
2B1
100
AcDbEntity
  8
0
100
AcDbBlockEnd
  0
BLOCK
  5
2B2
100
AcDbEntity
  8
Detail
100
AcDbBlockBegin
  2
B-38
 70
    66
 10
0.000000
 20
0.000000
 30
0.000000
  0
MTEXT
  5
2B3
100
AcDbEntity
  8
Detail
 62
     7
100
AcDbMText
 10
79.375021
 20
14.749977
 30
0.000000
 40
4.999995
 41
142.747357
 71
     1
 72
     5
  1
Armierungsschicht mit Ceratherm Mörtel DP
  7
Arial
 50
0.000000
  0
ENDBLK
  5
2B4
100
AcDbEntity
  8
0
100
AcDbBlockEnd
  0
BLOCK
  5
2B5
100
AcDbEntity
  8
Detail
100
AcDbBlockBegin
  2
B-39
 70
    66
 10
0.000000
 20
0.000000
 30
0.000000
  0
MTEXT
  5
2B6
100
AcDbEntity
  8
Detail
 62
     7
100
AcDbMText
 10
79.375021
 20
-10.250023
 30
0.000000
 40
4.999995
 41
122.954877
 71
     1
 72
     5
  1
Verdübelung durch Gewebearmierung
  7
Arial
 50
0.000000
  0
ENDBLK
  5
2B7
100
AcDbEntity
  8
0
100
AcDbBlockEnd
  0
BLOCK
  5
2B8
100
AcDbEntity
  8
Detail
100
AcDbBlockBegin
  2
B-40
 70
    66
 10
0.000000
 20
0.000000
 30
0.000000
  0
MTEXT
  5
2B9
100
AcDbEntity
  8
Detail
 62
     7
100
AcDbMText
 10
79.375021
 20
-35.250023
 30
0.000000
 40
4.999995
 41
59.482441
 71
     1
 72
     5
  1
WDVS-Dämmstoff
  7
Arial
 50
0.000000
  0
ENDBLK
  5
2BA
100
AcDbEntity
  8
0
100
AcDbBlockEnd
  0
BLOCK
  5
2BB
100
AcDbEntity
  8
Detail
100
AcDbBlockBegin
  2
B-41
 70
    66
 10
0.000000
 20
0.000000
 30
0.000000
  0
MTEXT
  5
2BC
100
AcDbEntity
  8
Detail
 62
     7
100
AcDbMText
 10
79.375021
 20
-60.250025
 30
0.000000
 40
4.999995
 41
38.902461
 71
     1
 72
     5
  1
Klebemörtel
  7
Arial
 50
0.000000
  0
ENDBLK
  5
2BD
100
AcDbEntity
  8
0
100
AcDbBlockEnd
  0
BLOCK
  5
2BE
100
AcDbEntity
  8
SCHRAFF
100
AcDbBlockBegin
  2
B-42
 70
    66
 10
0.000000
 20
0.000000
 30
0.000000
  0
HATCH
  5
2BF
100
AcDbEntity
  8
SCHRAFF
 62
     7
440
     0
100
AcDbHatch
 10
0.000000
 20
0.000000
 30
0.000000
210
0.000000
220
0.000000
230
1.000000
  2
SOLID
 70
     1
 71
     1
 91
     1
 92
    18
 72
     1
 73
     0
 93
     3
 10
10.000023
 20
-87.749922
 42
1.000000
 10
9.000023
 20
-87.749922
 42
1.000000
 10
10.000023
 20
-87.749922
 42
0.000000
 97
     0
 75
     0
 76
     1
 98
     0
  0
CIRCLE
  5
2C0
100
AcDbEntity
  8
Detail
  6
CONTINUOUS
 62
     7
100
AcDbCircle
 10
9.500023
 20
-87.749922
 40
0.500000
  0
ENDBLK
  5
2C1
100
AcDbEntity
  8
0
100
AcDbBlockEnd
  0
BLOCK
  5
2C2
100
AcDbEntity
  8
Detail
100
AcDbBlockBegin
  2
B-43
 70
    66
 10
0.000000
 20
0.000000
 30
0.000000
  0
MTEXT
  5
2C3
100
AcDbEntity
  8
Detail
 62
     7
100
AcDbMText
 10
79.375021
 20
-90.250020
 30
0.000000
 40
4.999995
 41
135.764864
 71
     7
 72
     5
  1
Feldbegrenzungsfuge mit PE-Rundschnur
  7
Arial
 50
0.000000
  0
MTEXT
  5
2C4
100
AcDbEntity
  8
Detail
 62
     7
100
AcDbMText
 10
79.375021
 20
-97.750012
 30
0.000000
 40
4.999995
 41
85.154915
 71
     7
 72
     5
  1
und elastischem Dichtstoff
  7
Arial
 50
0.000000
  0
ENDBLK
  5
2C5
100
AcDbEntity
  8
0
100
AcDbBlockEnd
  0
BLOCK
  5
2C6
100
AcDbEntity
  8
Detail
100
AcDbBlockBegin
  2
B-44
 70
    66
 10
0.000000
 20
0.000000
 30
0.000000
  0
LWPOLYLINE
  5
2C7
100
AcDbEntity
  8
Detail
  6
CONTINUOUS
 62
     7
100
AcDbPolyline
 90
     2
 10
77.500023
 20
-87.749922
 42
0.000000
 10
9.365461
 20
-87.749922
 42
0.000000
  0
ENDBLK
  5
2CA
100
AcDbEntity
  8
0
100
AcDbBlockEnd
  0
BLOCK
  5
2CB
100
AcDbEntity
  8
SCHRAFF
100
AcDbBlockBegin
  2
B-45
 70
    66
 10
0.000000
 20
0.000000
 30
0.000000
  0
HATCH
  5
2CC
100
AcDbEntity
  8
SCHRAFF
 62
   250
440
     0
100
AcDbHatch
 10
0.000000
 20
0.000000
 30
0.000000
210
0.000000
220
0.000000
230
1.000000
  2
SOLID
 70
     1
 71
     1
 91
     1
 92
    18
 72
     1
 73
     0
 93
     8
 10
3.000023
 20
130.750078
 42
0.000000
 10
3.000023
 20
107.000078
 42
0.000000
 10
4.250023
 20
107.000078
 42
0.000000
 10
4.250023
 20
132.000078
 42
0.000000
 10
-20.749977
 20
132.000078
 42
0.000000
 10
-20.749977
 20
130.750078
 42
0.000000
 10
2.976159
 20
130.750078
 42
0.000000
 10
3.000023
 20
130.750078
 42
0.000000
 97
     0
 75
     0
 76
     1
 98
     0
  0
POLYLINE
  5
2CD
100
AcDbEntity
  8
Detail
 66
     1
  6
CONTINUOUS
 62
     4
100
AcDb2dPolyline
  0
VERTEX
  5
2CE
100
AcDbEntity
  8
Detail
100
AcDbVertex
100
AcDb2dVertex
 10
3.000023
 20
107.000078
 42
0.000000
  0
VERTEX
  5
2CF
100
AcDbEntity
  8
Detail
100
AcDbVertex
100
AcDb2dVertex
 10
4.250023
 20
107.000078
 42
0.000000
  0
VERTEX
  5
2D0
100
AcDbEntity
  8
Detail
100
AcDbVertex
100
AcDb2dVertex
 10
4.250023
 20
132.000078
 42
0.000000
  0
VERTEX
  5
2D1
100
AcDbEntity
  8
Detail
100
AcDbVertex
100
AcDb2dVertex
 10
-20.749977
 20
132.000078
 42
0.000000
  0
VERTEX
  5
2D2
100
AcDbEntity
  8
Detail
100
AcDbVertex
100
AcDb2dVertex
 10
-20.749977
 20
130.750078
 42
0.000000
  0
VERTEX
  5
2D3
100
AcDbEntity
  8
Detail
100
AcDbVertex
100
AcDb2dVertex
 10
3.000023
 20
130.750078
 42
0.000000
  0
VERTEX
  5
2D4
100
AcDbEntity
  8
Detail
 62
     9
100
AcDbVertex
100
AcDb2dVertex
 10
2.976159
 20
130.750078
 42
0.000000
  0
VERTEX
  5
2D5
100
AcDbEntity
  8
Detail
 62
     9
100
AcDbVertex
100
AcDb2dVertex
 10
3.000023
 20
130.750078
 42
0.000000
  0
VERTEX
  5
2D6
100
AcDbEntity
  8
Detail
100
AcDbVertex
100
AcDb2dVertex
 10
3.000023
 20
107.000078
 42
0.000000
  0
SEQEND
  5
2D7
100
AcDbEntity
  8
Detail
  0
ENDBLK
  5
2D8
100
AcDbEntity
  8
0
100
AcDbBlockEnd
  0
BLOCK
  5
2D9
100
AcDbEntity
  8
SCHRAFF
100
AcDbBlockBegin
  2
B-46
 70
    66
 10
0.000000
 20
0.000000
 30
0.000000
  0
HATCH
  5
2DA
100
AcDbEntity
  8
SCHRAFF
 62
     7
440
     0
100
AcDbHatch
 10
0.000000
 20
0.000000
 30
0.000000
210
0.000000
220
0.000000
230
1.000000
  2
SOLID
 70
     1
 71
     1
 91
     1
 92
    18
 72
     1
 73
     0
 93
     3
 10
4.125023
 20
112.250078
 42
1.000000
 10
3.125023
 20
112.250078
 42
1.000000
 10
4.125023
 20
112.250078
 42
0.000000
 97
     0
 75
     0
 76
     1
 98
     0
  0
ENDBLK
  5
2DB
100
AcDbEntity
  8
0
100
AcDbBlockEnd
  0
BLOCK
  5
2DC
100
AcDbEntity
  8
Detail
100
AcDbBlockBegin
  2
B-47
 70
    66
 10
0.000000
 20
0.000000
 30
0.000000
  0
CIRCLE
  5
2DD
100
AcDbEntity
  8
Detail
  6
CONTINUOUS
 62
     7
100
AcDbCircle
 10
3.625023
 20
112.250078
 40
0.500000
  0
ENDBLK
  5
2DE
100
AcDbEntity
  8
0
100
AcDbBlockEnd
  0
BLOCK
  5
2DF
100
AcDbEntity
  8
Detail
100
AcDbBlockBegin
  2
B-48
 70
    66
 10
0.000000
 20
0.000000
 30
0.000000
  0
LWPOLYLINE
  5
2E0
100
AcDbEntity
  8
Detail
  6
CONTINUOUS
 62
     7
100
AcDbPolyline
 90
     2
 10
77.500023
 20
112.250078
 42
0.000000
 10
3.625023
 20
112.250078
 42
0.000000
  0
ENDBLK
  5
2E3
100
AcDbEntity
  8
0
100
AcDbBlockEnd
  0
BLOCK
  5
2E4
100
AcDbEntity
  8
Detail
100
AcDbBlockBegin
  2
B-49
 70
    66
 10
0.000000
 20
0.000000
 30
0.000000
  0
LWPOLYLINE
  5
2E5
100
AcDbEntity
  8
Detail
  6
CONTINUOUS
 62
     7
100
AcDbPolyline
 90
     2
 10
77.500023
 20
-37.749922
 42
0.000000
 10
-37.499977
 20
-37.749922
 42
0.000000
  0
ENDBLK
  5
2E8
100
AcDbEntity
  8
0
100
AcDbBlockEnd
  0
BLOCK
  5
2E9
100
AcDbEntity
  8
SCHRAFF
100
AcDbBlockBegin
  2
B-50
 70
    66
 10
0.000000
 20
0.000000
 30
0.000000
  0
HATCH
  5
2EA
100
AcDbEntity
  8
SCHRAFF
 62
     7
440
     0
100
AcDbHatch
 10
0.000000
 20
0.000000
 30
0.000000
210
0.000000
220
0.000000
230
1.000000
  2
SOLID
 70
     1
 71
     1
 91
     1
 92
    18
 72
     1
 73
     0
 93
     3
 10
9.500023
 20
-12.749922
 42
1.000000
 10
8.500023
 20
-12.749922
 42
1.000000
 10
9.500023
 20
-12.749922
 42
0.000000
 97
     0
 75
     0
 76
     1
 98
     0
  0
LWPOLYLINE
  5
2EB
100
AcDbEntity
  8
Detail
  6
CONTINUOUS
 62
     7
100
AcDbPolyline
 90
     2
 10
77.500023
 20
-12.749922
 42
0.000000
 10
9.000023
 20
-12.749922
 42
0.000000
  0
CIRCLE
  5
2EE
100
AcDbEntity
  8
Detail
  6
CONTINUOUS
 62
     7
100
AcDbCircle
 10
9.000023
 20
-12.749922
 40
0.500000
  0
ENDBLK
  5
2EF
100
AcDbEntity
  8
0
100
AcDbBlockEnd
  0
BLOCK
  5
2F0
100
AcDbEntity
  8
Detail
100
AcDbBlockBegin
  2
B-51
 70
    66
 10
0.000000
 20
0.000000
 30
0.000000
  0
MTEXT
  5
2F1
100
AcDbEntity
  8
Detail
 62
     7
100
AcDbMText
 10
-211.093768
 20
-225.937528
 30
0.000000
 40
3.749990
 41
353.428963
 71
     7
 72
     5
  1
Capatect Details sind allgemeine planerische Vorschläge. Sie stellen schematisch die Ausführung dar. Ihnen zugrunde liegen die entsprechenden 
  7
Arial
 50
0.000000
  0
MTEXT
  5
2F2
100
AcDbEntity
  8
Detail
 62
     7
100
AcDbMText
 10
-211.093768
 20
-231.562513
 30
0.000000
 40
3.749990
 41
392.764473
 71
     7
 72
     5
  1
Produktdatenblätter sowie Systemzulassungen. Die Möglichkeit der Detailanwendung sowie deren Vollständigkeit sind im speziellen Anwendungsfall vom Planer / 
  7
Arial
 50
0.000000
  0
MTEXT
  5
2F3
100
AcDbEntity
  8
Detail
 62
     7
100
AcDbMText
 10
-211.093768
 20
-237.187498
 30
0.000000
 40
3.749990
 41
107.887184
 71
     7
 72
     5
  1
Unternehmer eigenverantwortlich zu prüfen. 
  7
Arial
 50
0.000000
  0
ENDBLK
  5
2F4
100
AcDbEntity
  8
0
100
AcDbBlockEnd
  0
BLOCK
  5
2F5
100
AcDbEntity
  8
Detail
100
AcDbBlockBegin
  2
B-52
 70
    66
 10
0.000000
 20
0.000000
 30
0.000000
  0
LWPOLYLINE
  5
2F6
100
AcDbEntity
  8
Detail
  6
CONTINUOUS
 62
     6
100
AcDbPolyline
 90
     2
 10
237.500023
 20
-246.249941
 42
0.000000
 10
-237.500018
 20
-246.249941
 42
0.000000
  0
ENDBLK
  5
2F9
100
AcDbEntity
  8
0
100
AcDbBlockEnd
  0
BLOCK
  5
2FA
100
AcDbEntity
  8
Detail
100
AcDbBlockBegin
  2
B-53
 70
    66
 10
0.000000
 20
0.000000
 30
0.000000
  0
MTEXT
  5
2FB
100
AcDbEntity
  8
Detail
 62
     7
100
AcDbMText
 10
-210.625002
 20
-252.656291
 30
0.000000
 40
5.625000
 41
142.576875
 71
     1
 72
     5
  1
System:	WDVS mit Hartbekleidung
  7
Arial
 50
0.000000
  0
ENDBLK
  5
2FC
100
AcDbEntity
  8
0
100
AcDbBlockEnd
  0
BLOCK
  5
2FD
100
AcDbEntity
  8
Detail
100
AcDbBlockBegin
  2
B-54
 70
    66
 10
0.000000
 20
0.000000
 30
0.000000
  0
MTEXT
  5
2FE
100
AcDbEntity
  8
Detail
 62
     7
100
AcDbMText
 10
-210.625002
 20
-290.156291
 30
0.000000
 40
5.625000
 41
67.921875
 71
     1
 72
     5
  1
Detail:	Aussenecke
  7
Arial
 50
0.000000
  0
ENDBLK
  5
2FF
100
AcDbEntity
  8
0
100
AcDbBlockEnd
  0
BLOCK
  5
300
100
AcDbEntity
  8
Detail
100
AcDbBlockBegin
  2
B-55
 70
    66
 10
0.000000
 20
0.000000
 30
0.000000
  0
MTEXT
  5
301
100
AcDbEntity
  8
Detail
 62
     7
100
AcDbMText
 10
6.314834
 20
-252.500041
 30
0.000000
 40
5.000000
 41
93.712500
 71
     1
 72
     5
  1
Plannummer:	125-0314
  7
Arial
 50
0.000000
  0
ENDBLK
  5
302
100
AcDbEntity
  8
0
100
AcDbBlockEnd
  0
BLOCK
  5
303
100
AcDbEntity
  8
Detail
100
AcDbBlockBegin
  2
B-56
 70
    66
 10
0.000000
 20
0.000000
 30
0.000000
  0
MTEXT
  5
304
100
AcDbEntity
  8
Detail
 62
     7
100
AcDbMText
 10
6.314834
 20
-277.500041
 30
0.000000
 40
5.000000
 41
91.035000
 71
     1
 72
     5
  1
Massstab:		ca. 1:2,5
  7
Arial
 50
0.000000
  0
ENDBLK
  5
305
100
AcDbEntity
  8
0
100
AcDbBlockEnd
  0
BLOCK
  5
306
100
AcDbEntity
  8
Detail
100
AcDbBlockBegin
  2
B-57
 70
    66
 10
0.000000
 20
0.000000
 30
0.000000
  0
MTEXT
  5
307
100
AcDbEntity
  8
Detail
 62
     7
100
AcDbMText
 10
6.314834
 20
-302.500041
 30
0.000000
 40
5.000000
 41
99.435000
 71
     1
 72
     5
  1
Aktualisierung:	14.07.2016
  7
Arial
 50
0.000000
  0
ENDBLK
  5
308
100
AcDbEntity
  8
0
100
AcDbBlockEnd
  0
BLOCK
  5
309
100
AcDbEntity
  8
Detail
100
AcDbBlockBegin
  2
B-58
 70
    66
 10
0.000000
 20
0.000000
 30
0.000000
  0
LWPOLYLINE
  5
30A
100
AcDbEntity
  8
Detail
  6
CONTINUOUS
 62
     6
100
AcDbPolyline
 90
     2
 10
-20.560166
 20
-321.249941
 42
0.000000
 10
-20.560166
 20
-246.249941
 42
0.000000
  0
LWPOLYLINE
  5
30D
100
AcDbEntity
  8
Detail
  6
CONTINUOUS
 62
     6
100
AcDbPolyline
 90
     2
 10
-237.500018
 20
-321.249941
 42
0.000000
 10
120.969928
 20
-321.249941
 42
0.000000
  0
LWPOLYLINE
  5
310
100
AcDbEntity
  8
Detail
  6
CONTINUOUS
 62
     6
100
AcDbPolyline
 90
     2
 10
-20.560166
 20
-271.249941
 42
0.000000
 10
120.969928
 20
-271.249941
 42
0.000000
  0
LWPOLYLINE
  5
313
100
AcDbEntity
  8
Detail
  6
CONTINUOUS
 62
     6
100
AcDbPolyline
 90
     2
 10
-20.560166
 20
-296.249941
 42
0.000000
 10
120.969928
 20
-296.249941
 42
0.000000
  0
ENDBLK
  5
316
100
AcDbEntity
  8
0
100
AcDbBlockEnd
  0
BLOCK
  5
317
100
AcDbEntity
  8
Detail
100
AcDbBlockBegin
  2
B-59
 70
    66
 10
0.000000
 20
0.000000
 30
0.000000
  0
MTEXT
  5
318
100
AcDbEntity
  8
Detail
 62
     7
100
AcDbMText
 10
-210.625009
 20
-332.500016
 30
0.000000
 40
4.999980
 41
58.117268
 71
     7
 72
     5
  1
DAW Schweiz AG
  7
Arial
 50
0.000000
  0
MTEXT
  5
319
100
AcDbEntity
  8
Detail
 62
     7
100
AcDbMText
 10
-210.625009
 20
-339.999986
 30
0.000000
 40
4.999980
 41
108.149567
 71
     7
 72
     5
  1
Gewerbestrasse 6, 8606 Nänikon
  7
Arial
 50
0.000000
  0
ENDBLK
  5
31A
100
AcDbEntity
  8
0
100
AcDbBlockEnd
  0
BLOCK
  5
31B
100
AcDbEntity
  8
Detail
100
AcDbBlockBegin
  2
B-60
 70
    66
 10
0.000000
 20
0.000000
 30
0.000000
  0
LWPOLYLINE
  5
31C
100
AcDbEntity
  8
Detail
  6
CONTINUOUS
 62
     6
100
AcDbPolyline
 90
     2
 10
-20.560166
 20
-283.749941
 42
0.000000
 10
-237.500018
 20
-283.749941
 42
0.000000
  0
ENDBLK
  5
31F
100
AcDbEntity
  8
0
100
AcDbBlockEnd
  0
BLOCK
  5
320
100
AcDbEntity
  8
Detail
100
AcDbBlockBegin
  2
B-61
 70
    66
 10
0.000000
 20
0.000000
 30
0.000000
  0
MTEXT
  5
321
100
AcDbEntity
  8
Detail
 62
     7
100
AcDbMText
 10
-85.625025
 20
-332.500016
 30
0.000000
 40
4.999980
 41
72.134711
 71
     7
 72
     5
  1
Telefon 043 399 42 22
  7
Arial
 50
0.000000
  0
MTEXT
  5
322
100
AcDbEntity
  8
Detail
 62
     7
100
AcDbMText
 10
-85.625025
 20
-339.999986
 30
0.000000
 40
4.999980
 41
71.767213
 71
     7
 72
     5
  1
Telefax 043 399 42 23
  7
Arial
 50
0.000000
  0
ENDBLK
  5
323
100
AcDbEntity
  8
0
100
AcDbBlockEnd
  0
BLOCK
  5
324
100
AcDbEntity
  8
Detail
100
AcDbBlockBegin
  2
B-62
 70
    66
 10
0.000000
 20
0.000000
 30
0.000000
  0
MTEXT
  5
325
100
AcDbEntity
  8
Detail
 62
     7
100
AcDbMText
 10
39.374975
 20
-332.500019
 30
0.000000
 40
4.999982
 41
51.922313
 71
     7
 72
     5
  1
info@daw.swiss
  7
Arial
 50
0.000000
  0
MTEXT
  5
326
100
AcDbEntity
  8
Detail
 62
     7
100
AcDbMText
 10
39.374975
 20
-339.999993
 30
0.000000
 40
4.999982
 41
54.599803
 71
     7
 72
     5
  1
www.capatect.ch
  7
Arial
 50
0.000000
  0
ENDBLK
  5
327
100
AcDbEntity
  8
0
100
AcDbBlockEnd
  0
BLOCK
  5
328
100
AcDbEntity
  8
Detail
100
AcDbBlockBegin
  2
B-63
 70
    66
 10
0.000000
 20
0.000000
 30
0.000000
  0
LWPOLYLINE
  5
329
100
AcDbEntity
  8
Detail
  6
CONTINUOUS
 62
     6
100
AcDbPolyline
 90
     2
 10
120.969928
 20
-346.249941
 42
0.000000
 10
120.969928
 20
-246.249941
 42
0.000000
  0
ENDBLK
  5
32C
100
AcDbEntity
  8
0
100
AcDbBlockEnd
  0
BLOCK
  5
32D
100
AcDbEntity
  8
Detail
100
AcDbBlockBegin
  2
B-64
 70
    66
 10
0.000000
 20
0.000000
 30
0.000000
  0
LWPOLYLINE
  5
32E
100
AcDbEntity
  8
Detail
  6
CONTINUOUS
 62
     6
100
AcDbPolyline
 90
     5
 10
-237.500018
 20
-346.249941
 42
0.000000
 10
237.500023
 20
-346.249941
 42
0.000000
 10
237.500023
 20
346.250078
 42
0.000000
 10
-237.500018
 20
346.250078
 42
0.000000
 10
-237.500018
 20
-346.249941
 42
0.000000
  0
ENDBLK
  5
334
100
AcDbEntity
  8
0
100
AcDbBlockEnd
  0
BLOCK
  5
335
100
AcDbEntity
  8
Detail
100
AcDbBlockBegin
  2
B-65
 70
    66
 10
0.000000
 20
0.000000
 30
0.000000
  0
ENDBLK
  5
336
100
AcDbEntity
  8
0
100
AcDbBlockEnd
  0
BLOCK
  5
337
100
AcDbEntity
  8
Detail
100
AcDbBlockBegin
  2
B-66
 70
    66
 10
0.000000
 20
0.000000
 30
0.000000
  0
LWPOLYLINE
  5
338
100
AcDbEntity
  8
Detail
  6
CONTINUOUS
 62
     9
100
AcDbPolyline
 90
     2
 10
-20.999977
 20
-5.749922
 42
0.000000
 10
-20.999977
 20
-19.729335
 42
0.000000
  0
LWPOLYLINE
  5
33B
100
AcDbEntity
  8
Detail
  6
CONTINUOUS
 62
     9
100
AcDbPolyline
 90
    83
 10
7.500023
 20
-42.749922
 42
0.000000
 10
8.000023
 20
-42.749922
 42
0.000000
 10
9.000023
 20
-37.749922
 42
0.000000
 10
9.000023
 20
12.250078
 42
0.000000
 10
8.000023
 20
17.250078
 42
0.000000
 10
7.500023
 20
17.250078
 42
0.000000
 10
7.500023
 20
0.250078
 42
0.000000
 10
6.250023
 20
-3.499922
 42
0.000000
 10
2.500023
 20
-4.749922
 42
0.000000
 10
-20.999977
 20
-5.749922
 42
0.000000
 10
-26.999977
 20
-8.249922
 42
0.000000
 10
-89.462174
 20
-8.789922
 42
0.000000
 10
-90.828116
 20
-9.036931
 42
0.000000
 10
-90.903870
 20
-8.789922
 42
0.000000
 10
-93.686174
 20
-8.789922
 42
0.000000
 10
-95.052116
 20
-9.036931
 42
0.000000
 10
-95.127870
 20
-8.789922
 42
0.000000
 10
-97.910174
 20
-8.789922
 42
0.000000
 10
-99.276116
 20
-9.036931
 42
0.000000
 10
-99.351786
 20
-8.794722
 42
0.000000
 10
-102.134174
 20
-8.789922
 42
0.000000
 10
-103.500116
 20
-9.036931
 42
0.000000
 10
-103.575870
 20
-8.789922
 42
0.000000
 10
-106.358174
 20
-8.789922
 42
0.000000
 10
-107.724116
 20
-9.036931
 42
0.000000
 10
-107.799870
 20
-8.789922
 42
0.000000
 10
-110.582174
 20
-8.789922
 42
0.000000
 10
-111.948116
 20
-9.036931
 42
0.000000
 10
-112.023870
 20
-8.789922
 42
0.000000
 10
-114.806174
 20
-8.789922
 42
0.000000
 10
-116.172116
 20
-9.036931
 42
0.000000
 10
-116.247870
 20
-8.789922
 42
0.000000
 10
-119.030174
 20
-8.789922
 42
0.000000
 10
-120.396116
 20
-9.036931
 42
0.000000
 10
-120.471870
 20
-8.789922
 42
0.000000
 10
-123.254174
 20
-8.789922
 42
0.000000
 10
-124.458330
 20
-9.072354
 42
0.000000
 10
-124.917313
 20
-8.909923
 42
0.000000
 10
-125.894174
 20
-9.344178
 42
0.000000
 10
-126.134174
 20
-9.869922
 42
0.000000
 10
-126.902174
 20
-9.869922
 42
0.000000
 10
-128.420067
 20
-10.410890
 42
0.000000
 10
-129.253684
 20
-11.789922
 42
0.000000
 10
-130.999977
 20
-12.749922
 42
0.000000
 10
-129.253684
 20
-13.709922
 42
0.000000
 10
-128.420067
 20
-15.088954
 42
0.000000
 10
-127.157373
 20
-15.616315
 42
0.000000
 10
-126.134174
 20
-15.629922
 42
0.000000
 10
-125.894174
 20
-16.155666
 42
0.000000
 10
-125.142018
 20
-16.589922
 42
0.000000
 10
-124.692605
 20
-16.589922
 42
0.000000
 10
-124.458330
 20
-16.427490
 42
0.000000
 10
-123.254174
 20
-16.709922
 42
0.000000
 10
-120.471870
 20
-16.709922
 42
0.000000
 10
-120.396116
 20
-16.462913
 42
0.000000
 10
-119.030174
 20
-16.709922
 42
0.000000
 10
-116.247870
 20
-16.709922
 42
0.000000
 10
-116.172116
 20
-16.462913
 42
0.000000
 10
-114.806174
 20
-16.709922
 42
0.000000
 10
-112.023870
 20
-16.709922
 42
0.000000
 10
-111.948116
 20
-16.462913
 42
0.000000
 10
-110.582174
 20
-16.709922
 42
0.000000
 10
-107.799870
 20
-16.709922
 42
0.000000
 10
-107.724116
 20
-16.462913
 42
0.000000
 10
-106.358174
 20
-16.709922
 42
0.000000
 10
-103.575870
 20
-16.709922
 42
0.000000
 10
-103.500116
 20
-16.462913
 42
0.000000
 10
-102.134174
 20
-16.709922
 42
0.000000
 10
-99.351786
 20
-16.705122
 42
0.000000
 10
-99.276116
 20
-16.462913
 42
0.000000
 10
-97.910174
 20
-16.709922
 42
0.000000
 10
-95.127870
 20
-16.709922
 42
0.000000
 10
-95.052116
 20
-16.462913
 42
0.000000
 10
-93.686174
 20
-16.709922
 42
0.000000
 10
-90.903870
 20
-16.709922
 42
0.000000
 10
-90.828116
 20
-16.462913
 42
0.000000
 10
-89.462174
 20
-16.709922
 42
0.000000
 10
-26.999977
 20
-17.249922
 42
0.000000
 10
-20.999977
 20
-19.749922
 42
0.000000
 10
2.500023
 20
-20.749922
 42
0.000000
 10
6.250023
 20
-21.999922
 42
0.000000
 10
7.500023
 20
-25.749922
 42
0.000000
 10
7.500023
 20
-42.749922
 42
0.000000
  0
LWPOLYLINE
  5
38F
100
AcDbEntity
  8
Detail
  6
CONTINUOUS
 62
     9
100
AcDbPolyline
 90
   203
 10
-130.999977
 20
-12.749922
 42
0.000000
 10
-128.886901
 20
-11.874657
 42
0.000000
 10
-128.385326
 20
-11.005904
 42
0.000000
 10
-127.996651
 20
-11.505904
 42
0.000000
 10
-126.916314
 20
-11.058413
 42
0.000000
 10
-126.414739
 20
-10.189659
 42
0.000000
 10
-126.026064
 20
-10.689659
 42
0.000000
 10
-125.447287
 20
-10.449922
 42
0.000000
 10
-124.846248
 20
-10.449922
 42
0.000000
 10
-124.557573
 20
-9.949922
 42
0.000000
 10
-124.168898
 20
-10.449922
 42
0.000000
 10
-123.036248
 20
-10.449922
 42
0.000000
 10
-122.747573
 20
-9.949922
 42
0.000000
 10
-122.358898
 20
-10.449922
 42
0.000000
 10
-121.226248
 20
-10.449922
 42
0.000000
 10
-120.937573
 20
-9.949922
 42
0.000000
 10
-120.548898
 20
-10.449922
 42
0.000000
 10
-119.416248
 20
-10.449922
 42
0.000000
 10
-119.127573
 20
-9.949922
 42
0.000000
 10
-118.738898
 20
-10.449922
 42
0.000000
 10
-117.606248
 20
-10.449922
 42
0.000000
 10
-117.317573
 20
-9.949922
 42
0.000000
 10
-116.928898
 20
-10.449922
 42
0.000000
 10
-115.796248
 20
-10.449922
 42
0.000000
 10
-115.507573
 20
-9.949922
 42
0.000000
 10
-115.118898
 20
-10.449922
 42
0.000000
 10
-113.986248
 20
-10.449922
 42
0.000000
 10
-113.697573
 20
-9.949922
 42
0.000000
 10
-113.308898
 20
-10.449922
 42
0.000000
 10
-112.176248
 20
-10.449922
 42
0.000000
 10
-111.887573
 20
-9.949922
 42
0.000000
 10
-111.498898
 20
-10.449922
 42
0.000000
 10
-110.366248
 20
-10.449922
 42
0.000000
 10
-110.077573
 20
-9.949922
 42
0.000000
 10
-109.688898
 20
-10.449922
 42
0.000000
 10
-108.556248
 20
-10.449922
 42
0.000000
 10
-108.267573
 20
-9.949922
 42
0.000000
 10
-107.878898
 20
-10.449922
 42
0.000000
 10
-106.746248
 20
-10.449922
 42
0.000000
 10
-106.457573
 20
-9.949922
 42
0.000000
 10
-106.068898
 20
-10.449922
 42
0.000000
 10
-104.936248
 20
-10.449922
 42
0.000000
 10
-104.647573
 20
-9.949922
 42
0.000000
 10
-104.258898
 20
-10.449922
 42
0.000000
 10
-103.126248
 20
-10.449922
 42
0.000000
 10
-102.837573
 20
-9.949922
 42
0.000000
 10
-102.448898
 20
-10.449922
 42
0.000000
 10
-101.316248
 20
-10.449922
 42
0.000000
 10
-101.027573
 20
-9.949922
 42
0.000000
 10
-100.638898
 20
-10.449922
 42
0.000000
 10
-99.506248
 20
-10.449922
 42
0.000000
 10
-99.217573
 20
-9.949922
 42
0.000000
 10
-98.828898
 20
-10.449922
 42
0.000000
 10
-97.696248
 20
-10.449922
 42
0.000000
 10
-97.407573
 20
-9.949922
 42
0.000000
 10
-97.018898
 20
-10.449922
 42
0.000000
 10
-95.886248
 20
-10.449922
 42
0.000000
 10
-95.597573
 20
-9.949922
 42
0.000000
 10
-95.186384
 20
-10.449922
 42
0.000000
 10
-94.076248
 20
-10.449922
 42
0.000000
 10
-93.787573
 20
-9.949922
 42
0.000000
 10
-93.398898
 20
-10.449922
 42
0.000000
 10
-92.266248
 20
-10.449922
 42
0.000000
 10
-91.977573
 20
-9.949922
 42
0.000000
 10
-91.588898
 20
-10.449922
 42
0.000000
 10
-90.456248
 20
-10.449922
 42
0.000000
 10
-90.167573
 20
-9.949922
 42
0.000000
 10
-89.778898
 20
-10.449922
 42
0.000000
 10
-88.646248
 20
-10.449922
 42
0.000000
 10
-88.357573
 20
-9.949922
 42
0.000000
 10
-87.968898
 20
-10.449922
 42
0.000000
 10
-86.836248
 20
-10.449922
 42
0.000000
 10
-86.547573
 20
-9.949922
 42
0.000000
 10
-86.158898
 20
-10.449922
 42
0.000000
 10
-85.026248
 20
-10.449922
 42
0.000000
 10
-84.737573
 20
-9.949922
 42
0.000000
 10
-84.348898
 20
-10.449922
 42
0.000000
 10
-83.216248
 20
-10.449922
 42
0.000000
 10
-82.927573
 20
-9.949922
 42
0.000000
 10
-82.538898
 20
-10.449922
 42
0.000000
 10
-81.406248
 20
-10.449922
 42
0.000000
 10
-81.117573
 20
-9.949922
 42
0.000000
 10
-80.728898
 20
-10.449922
 42
0.000000
 10
-79.596248
 20
-10.449922
 42
0.000000
 10
-79.307573
 20
-9.949922
 42
0.000000
 10
-78.918898
 20
-10.449922
 42
0.000000
 10
-77.786248
 20
-10.449922
 42
0.000000
 10
-77.497573
 20
-9.949922
 42
0.000000
 10
-77.108898
 20
-10.449922
 42
0.000000
 10
-75.976248
 20
-10.449922
 42
0.000000
 10
-75.687573
 20
-9.949922
 42
0.000000
 10
-75.298898
 20
-10.449922
 42
0.000000
 10
-74.166248
 20
-10.449922
 42
0.000000
 10
-73.877573
 20
-9.949922
 42
0.000000
 10
-73.488898
 20
-10.449922
 42
0.000000
 10
-72.356248
 20
-10.449922
 42
0.000000
 10
-72.067573
 20
-9.949922
 42
0.000000
 10
-71.678898
 20
-10.449922
 42
0.000000
 10
-70.999977
 20
-10.449922
 42
0.000000
 10
-70.826772
 20
-10.349922
 42
0.000000
 10
-26.999977
 20
-8.249922
 42
0.000000
 10
-26.999977
 20
-17.249922
 42
0.000000
 10
-70.826772
 20
-15.149922
 42
0.000000
 10
-70.999977
 20
-15.049922
 42
0.000000
 10
-71.162573
 20
-15.549922
 42
0.000000
 10
-71.451248
 20
-15.049922
 42
0.000000
 10
-72.583898
 20
-15.049922
 42
0.000000
 10
-72.972573
 20
-15.549922
 42
0.000000
 10
-73.261248
 20
-15.049922
 42
0.000000
 10
-74.393898
 20
-15.049922
 42
0.000000
 10
-74.782573
 20
-15.549922
 42
0.000000
 10
-75.071248
 20
-15.049922
 42
0.000000
 10
-76.203898
 20
-15.049922
 42
0.000000
 10
-76.592573
 20
-15.549922
 42
0.000000
 10
-76.881248
 20
-15.049922
 42
0.000000
 10
-78.013898
 20
-15.049922
 42
0.000000
 10
-78.402573
 20
-15.549922
 42
0.000000
 10
-78.691248
 20
-15.049922
 42
0.000000
 10
-79.823898
 20
-15.049922
 42
0.000000
 10
-80.212573
 20
-15.549922
 42
0.000000
 10
-80.501248
 20
-15.049922
 42
0.000000
 10
-81.633898
 20
-15.049922
 42
0.000000
 10
-82.022573
 20
-15.549922
 42
0.000000
 10
-82.311248
 20
-15.049922
 42
0.000000
 10
-83.443898
 20
-15.049922
 42
0.000000
 10
-83.832573
 20
-15.549922
 42
0.000000
 10
-84.121248
 20
-15.049922
 42
0.000000
 10
-85.253898
 20
-15.049922
 42
0.000000
 10
-85.642573
 20
-15.549922
 42
0.000000
 10
-85.931248
 20
-15.049922
 42
0.000000
 10
-87.063898
 20
-15.049922
 42
0.000000
 10
-87.452573
 20
-15.549922
 42
0.000000
 10
-87.741248
 20
-15.049922
 42
0.000000
 10
-88.873898
 20
-15.049922
 42
0.000000
 10
-89.262573
 20
-15.549922
 42
0.000000
 10
-89.551248
 20
-15.049922
 42
0.000000
 10
-90.683898
 20
-15.049922
 42
0.000000
 10
-91.072573
 20
-15.549922
 42
0.000000
 10
-91.361248
 20
-15.049922
 42
0.000000
 10
-92.493898
 20
-15.049922
 42
0.000000
 10
-92.882573
 20
-15.549922
 42
0.000000
 10
-93.171248
 20
-15.049922
 42
0.000000
 10
-94.303898
 20
-15.049922
 42
0.000000
 10
-94.692573
 20
-15.549922
 42
0.000000
 10
-94.981248
 20
-15.049922
 42
0.000000
 10
-96.113898
 20
-15.049922
 42
0.000000
 10
-96.502573
 20
-15.549922
 42
0.000000
 10
-96.791248
 20
-15.049922
 42
0.000000
 10
-97.923898
 20
-15.049922
 42
0.000000
 10
-98.312573
 20
-15.549922
 42
0.000000
 10
-98.601248
 20
-15.049922
 42
0.000000
 10
-99.733898
 20
-15.049922
 42
0.000000
 10
-100.122573
 20
-15.549922
 42
0.000000
 10
-100.411248
 20
-15.049922
 42
0.000000
 10
-101.543898
 20
-15.049922
 42
0.000000
 10
-101.932573
 20
-15.549922
 42
0.000000
 10
-102.221248
 20
-15.049922
 42
0.000000
 10
-103.353898
 20
-15.049922
 42
0.000000
 10
-103.742573
 20
-15.549922
 42
0.000000
 10
-104.031248
 20
-15.049922
 42
0.000000
 10
-105.163898
 20
-15.049922
 42
0.000000
 10
-105.552573
 20
-15.549922
 42
0.000000
 10
-105.841248
 20
-15.049922
 42
0.000000
 10
-106.973898
 20
-15.049922
 42
0.000000
 10
-107.362573
 20
-15.549922
 42
0.000000
 10
-107.651248
 20
-15.049922
 42
0.000000
 10
-108.783898
 20
-15.049922
 42
0.000000
 10
-109.172573
 20
-15.549922
 42
0.000000
 10
-109.461248
 20
-15.049922
 42
0.000000
 10
-110.593898
 20
-15.049922
 42
0.000000
 10
-110.982573
 20
-15.549922
 42
0.000000
 10
-111.271248
 20
-15.049922
 42
0.000000
 10
-112.403898
 20
-15.049922
 42
0.000000
 10
-112.792573
 20
-15.549922
 42
0.000000
 10
-113.081248
 20
-15.049922
 42
0.000000
 10
-114.213898
 20
-15.049922
 42
0.000000
 10
-114.602573
 20
-15.549922
 42
0.000000
 10
-114.891248
 20
-15.049922
 42
0.000000
 10
-116.023898
 20
-15.049922
 42
0.000000
 10
-116.412573
 20
-15.549922
 42
0.000000
 10
-116.701248
 20
-15.049922
 42
0.000000
 10
-117.833898
 20
-15.049922
 42
0.000000
 10
-118.222573
 20
-15.549922
 42
0.000000
 10
-118.511248
 20
-15.049922
 42
0.000000
 10
-119.643898
 20
-15.049922
 42
0.000000
 10
-120.032573
 20
-15.549922
 42
0.000000
 10
-120.321248
 20
-15.049922
 42
0.000000
 10
-121.453898
 20
-15.049922
 42
0.000000
 10
-121.842573
 20
-15.549922
 42
0.000000
 10
-122.131248
 20
-15.049922
 42
0.000000
 10
-123.263898
 20
-15.049922
 42
0.000000
 10
-123.652573
 20
-15.549922
 42
0.000000
 10
-123.941248
 20
-15.049922
 42
0.000000
 10
-125.073898
 20
-15.049922
 42
0.000000
 10
-125.462573
 20
-15.549922
 42
0.000000
 10
-125.846788
 20
-14.884443
 42
0.000000
 10
-126.775647
 20
-14.499697
 42
0.000000
 10
-127.164322
 20
-14.999697
 42
0.000000
 10
-127.665897
 20
-14.130943
 42
0.000000
 10
-128.449261
 20
-13.806463
 42
0.000000
 10
-128.837936
 20
-14.306463
 42
0.000000
 10
-129.339511
 20
-13.437709
 42
0.000000
 10
-130.999977
 20
-12.749922
 42
0.000000
  0
ENDBLK
  5
45B
100
AcDbEntity
  8
0
100
AcDbBlockEnd
  0
BLOCK
  5
45C
100
AcDbEntity
  8
Detail
100
AcDbBlockBegin
  2
B-68
 70
    66
 10
0.000000
 20
0.000000
 30
0.000000
  0
LWPOLYLINE
  5
45D
100
AcDbEntity
  8
Detail
  6
CONTINUOUS
 62
     9
100
AcDbPolyline
 90
     2
 10
-169.500018
 20
106.750078
 42
0.000000
 10
-155.520605
 20
106.750078
 42
0.000000
  0
LWPOLYLINE
  5
460
100
AcDbEntity
  8
Detail
  6
CONTINUOUS
 62
     9
100
AcDbPolyline
 90
    83
 10
-132.500018
 20
135.250078
 42
0.000000
 10
-132.500018
 20
135.750078
 42
0.000000
 10
-137.500018
 20
136.750078
 42
0.000000
 10
-187.500018
 20
136.750078
 42
0.000000
 10
-192.500018
 20
135.750078
 42
0.000000
 10
-192.500018
 20
135.250078
 42
0.000000
 10
-175.500018
 20
135.250078
 42
0.000000
 10
-171.750018
 20
134.000078
 42
0.000000
 10
-170.500018
 20
130.250078
 42
0.000000
 10
-169.500018
 20
106.750078
 42
0.000000
 10
-167.000018
 20
100.750078
 42
0.000000
 10
-166.460018
 20
38.287881
 42
0.000000
 10
-166.213009
 20
36.921938
 42
0.000000
 10
-166.460018
 20
36.846185
 42
0.000000
 10
-166.460018
 20
34.063881
 42
0.000000
 10
-166.213009
 20
32.697938
 42
0.000000
 10
-166.460018
 20
32.622185
 42
0.000000
 10
-166.460018
 20
29.839881
 42
0.000000
 10
-166.213009
 20
28.473938
 42
0.000000
 10
-166.455218
 20
28.398269
 42
0.000000
 10
-166.460018
 20
25.615881
 42
0.000000
 10
-166.213009
 20
24.249938
 42
0.000000
 10
-166.460018
 20
24.174185
 42
0.000000
 10
-166.460018
 20
21.391881
 42
0.000000
 10
-166.213009
 20
20.025938
 42
0.000000
 10
-166.460018
 20
19.950185
 42
0.000000
 10
-166.460018
 20
17.167881
 42
0.000000
 10
-166.213009
 20
15.801938
 42
0.000000
 10
-166.460018
 20
15.726185
 42
0.000000
 10
-166.460018
 20
12.943881
 42
0.000000
 10
-166.213009
 20
11.577938
 42
0.000000
 10
-166.460018
 20
11.502185
 42
0.000000
 10
-166.460018
 20
8.719881
 42
0.000000
 10
-166.213009
 20
7.353938
 42
0.000000
 10
-166.460018
 20
7.278185
 42
0.000000
 10
-166.460018
 20
4.495881
 42
0.000000
 10
-166.177586
 20
3.291724
 42
0.000000
 10
-166.340017
 20
2.832741
 42
0.000000
 10
-165.905762
 20
1.855881
 42
0.000000
 10
-165.380018
 20
1.615881
 42
0.000000
 10
-165.380018
 20
0.847881
 42
0.000000
 10
-164.839050
 20
-0.670012
 42
0.000000
 10
-163.460018
 20
-1.503629
 42
0.000000
 10
-162.500018
 20
-3.249922
 42
0.000000
 10
-161.540018
 20
-1.503629
 42
0.000000
 10
-160.160986
 20
-0.670012
 42
0.000000
 10
-159.633625
 20
0.592682
 42
0.000000
 10
-159.620018
 20
1.615881
 42
0.000000
 10
-159.094274
 20
1.855881
 42
0.000000
 10
-158.660018
 20
2.608037
 42
0.000000
 10
-158.660018
 20
3.057450
 42
0.000000
 10
-158.822450
 20
3.291724
 42
0.000000
 10
-158.540018
 20
4.495881
 42
0.000000
 10
-158.540018
 20
7.278185
 42
0.000000
 10
-158.787027
 20
7.353938
 42
0.000000
 10
-158.540018
 20
8.719881
 42
0.000000
 10
-158.540018
 20
11.502185
 42
0.000000
 10
-158.787027
 20
11.577938
 42
0.000000
 10
-158.540018
 20
12.943881
 42
0.000000
 10
-158.540018
 20
15.726185
 42
0.000000
 10
-158.787027
 20
15.801938
 42
0.000000
 10
-158.540018
 20
17.167881
 42
0.000000
 10
-158.540018
 20
19.950185
 42
0.000000
 10
-158.787027
 20
20.025938
 42
0.000000
 10
-158.540018
 20
21.391881
 42
0.000000
 10
-158.540018
 20
24.174185
 42
0.000000
 10
-158.787027
 20
24.249938
 42
0.000000
 10
-158.540018
 20
25.615881
 42
0.000000
 10
-158.544818
 20
28.398269
 42
0.000000
 10
-158.787027
 20
28.473938
 42
0.000000
 10
-158.540018
 20
29.839881
 42
0.000000
 10
-158.540018
 20
32.622185
 42
0.000000
 10
-158.787027
 20
32.697938
 42
0.000000
 10
-158.540018
 20
34.063881
 42
0.000000
 10
-158.540018
 20
36.846185
 42
0.000000
 10
-158.787027
 20
36.921938
 42
0.000000
 10
-158.540018
 20
38.287881
 42
0.000000
 10
-158.000018
 20
100.750078
 42
0.000000
 10
-155.500018
 20
106.750078
 42
0.000000
 10
-154.500018
 20
130.250078
 42
0.000000
 10
-153.250018
 20
134.000078
 42
0.000000
 10
-149.500018
 20
135.250078
 42
0.000000
 10
-132.500018
 20
135.250078
 42
0.000000
  0
LWPOLYLINE
  5
4B4
100
AcDbEntity
  8
Detail
  6
CONTINUOUS
 62
     9
100
AcDbPolyline
 90
   203
 10
-162.500018
 20
-3.249922
 42
0.000000
 10
-163.375283
 20
-1.136846
 42
0.000000
 10
-164.244036
 20
-0.635271
 42
0.000000
 10
-163.744036
 20
-0.246596
 42
0.000000
 10
-164.191527
 20
0.833741
 42
0.000000
 10
-165.060281
 20
1.335316
 42
0.000000
 10
-164.560281
 20
1.723991
 42
0.000000
 10
-164.800018
 20
2.302768
 42
0.000000
 10
-164.800018
 20
2.903806
 42
0.000000
 10
-165.300018
 20
3.192481
 42
0.000000
 10
-164.800018
 20
3.581156
 42
0.000000
 10
-164.800018
 20
4.713806
 42
0.000000
 10
-165.300018
 20
5.002481
 42
0.000000
 10
-164.800018
 20
5.391156
 42
0.000000
 10
-164.800018
 20
6.523806
 42
0.000000
 10
-165.300018
 20
6.812481
 42
0.000000
 10
-164.800018
 20
7.201156
 42
0.000000
 10
-164.800018
 20
8.333806
 42
0.000000
 10
-165.300018
 20
8.622481
 42
0.000000
 10
-164.800018
 20
9.011156
 42
0.000000
 10
-164.800018
 20
10.143806
 42
0.000000
 10
-165.300018
 20
10.432481
 42
0.000000
 10
-164.800018
 20
10.821156
 42
0.000000
 10
-164.800018
 20
11.953806
 42
0.000000
 10
-165.300018
 20
12.242481
 42
0.000000
 10
-164.800018
 20
12.631156
 42
0.000000
 10
-164.800018
 20
13.763806
 42
0.000000
 10
-165.300018
 20
14.052481
 42
0.000000
 10
-164.800018
 20
14.441156
 42
0.000000
 10
-164.800018
 20
15.573806
 42
0.000000
 10
-165.300018
 20
15.862481
 42
0.000000
 10
-164.800018
 20
16.251156
 42
0.000000
 10
-164.800018
 20
17.383806
 42
0.000000
 10
-165.300018
 20
17.672481
 42
0.000000
 10
-164.800018
 20
18.061156
 42
0.000000
 10
-164.800018
 20
19.193806
 42
0.000000
 10
-165.300018
 20
19.482481
 42
0.000000
 10
-164.800018
 20
19.871156
 42
0.000000
 10
-164.800018
 20
21.003806
 42
0.000000
 10
-165.300018
 20
21.292481
 42
0.000000
 10
-164.800018
 20
21.681156
 42
0.000000
 10
-164.800018
 20
22.813806
 42
0.000000
 10
-165.300018
 20
23.102481
 42
0.000000
 10
-164.800018
 20
23.491156
 42
0.000000
 10
-164.800018
 20
24.623806
 42
0.000000
 10
-165.300018
 20
24.912481
 42
0.000000
 10
-164.800018
 20
25.301156
 42
0.000000
 10
-164.800018
 20
26.433806
 42
0.000000
 10
-165.300018
 20
26.722481
 42
0.000000
 10
-164.800018
 20
27.111156
 42
0.000000
 10
-164.800018
 20
28.243806
 42
0.000000
 10
-165.300018
 20
28.532481
 42
0.000000
 10
-164.800018
 20
28.921156
 42
0.000000
 10
-164.800018
 20
30.053806
 42
0.000000
 10
-165.300018
 20
30.342481
 42
0.000000
 10
-164.800018
 20
30.731156
 42
0.000000
 10
-164.800018
 20
31.863806
 42
0.000000
 10
-165.300018
 20
32.152481
 42
0.000000
 10
-164.800018
 20
32.563671
 42
0.000000
 10
-164.800018
 20
33.673806
 42
0.000000
 10
-165.300018
 20
33.962481
 42
0.000000
 10
-164.800018
 20
34.351156
 42
0.000000
 10
-164.800018
 20
35.483806
 42
0.000000
 10
-165.300018
 20
35.772481
 42
0.000000
 10
-164.800018
 20
36.161156
 42
0.000000
 10
-164.800018
 20
37.293806
 42
0.000000
 10
-165.300018
 20
37.582481
 42
0.000000
 10
-164.800018
 20
37.971156
 42
0.000000
 10
-164.800018
 20
39.103806
 42
0.000000
 10
-165.300018
 20
39.392481
 42
0.000000
 10
-164.800018
 20
39.781156
 42
0.000000
 10
-164.800018
 20
40.913806
 42
0.000000
 10
-165.300018
 20
41.202481
 42
0.000000
 10
-164.800018
 20
41.591156
 42
0.000000
 10
-164.800018
 20
42.723806
 42
0.000000
 10
-165.300018
 20
43.012481
 42
0.000000
 10
-164.800018
 20
43.401156
 42
0.000000
 10
-164.800018
 20
44.533806
 42
0.000000
 10
-165.300018
 20
44.822481
 42
0.000000
 10
-164.800018
 20
45.211156
 42
0.000000
 10
-164.800018
 20
46.343806
 42
0.000000
 10
-165.300018
 20
46.632481
 42
0.000000
 10
-164.800018
 20
47.021156
 42
0.000000
 10
-164.800018
 20
48.153806
 42
0.000000
 10
-165.300018
 20
48.442481
 42
0.000000
 10
-164.800018
 20
48.831156
 42
0.000000
 10
-164.800018
 20
49.963806
 42
0.000000
 10
-165.300018
 20
50.252481
 42
0.000000
 10
-164.800018
 20
50.641156
 42
0.000000
 10
-164.800018
 20
51.773806
 42
0.000000
 10
-165.300018
 20
52.062481
 42
0.000000
 10
-164.800018
 20
52.451156
 42
0.000000
 10
-164.800018
 20
53.583806
 42
0.000000
 10
-165.300018
 20
53.872481
 42
0.000000
 10
-164.800018
 20
54.261156
 42
0.000000
 10
-164.800018
 20
55.393806
 42
0.000000
 10
-165.300018
 20
55.682481
 42
0.000000
 10
-164.800018
 20
56.071156
 42
0.000000
 10
-164.800018
 20
56.750078
 42
0.000000
 10
-164.900018
 20
56.923283
 42
0.000000
 10
-167.000018
 20
100.750078
 42
0.000000
 10
-158.000018
 20
100.750078
 42
0.000000
 10
-160.100018
 20
56.923283
 42
0.000000
 10
-160.200018
 20
56.750078
 42
0.000000
 10
-159.700018
 20
56.587481
 42
0.000000
 10
-160.200018
 20
56.298806
 42
0.000000
 10
-160.200018
 20
55.166156
 42
0.000000
 10
-159.700018
 20
54.777481
 42
0.000000
 10
-160.200018
 20
54.488806
 42
0.000000
 10
-160.200018
 20
53.356156
 42
0.000000
 10
-159.700018
 20
52.967481
 42
0.000000
 10
-160.200018
 20
52.678806
 42
0.000000
 10
-160.200018
 20
51.546156
 42
0.000000
 10
-159.700018
 20
51.157481
 42
0.000000
 10
-160.200018
 20
50.868806
 42
0.000000
 10
-160.200018
 20
49.736156
 42
0.000000
 10
-159.700018
 20
49.347481
 42
0.000000
 10
-160.200018
 20
49.058806
 42
0.000000
 10
-160.200018
 20
47.926156
 42
0.000000
 10
-159.700018
 20
47.537481
 42
0.000000
 10
-160.200018
 20
47.248806
 42
0.000000
 10
-160.200018
 20
46.116156
 42
0.000000
 10
-159.700018
 20
45.727481
 42
0.000000
 10
-160.200018
 20
45.438806
 42
0.000000
 10
-160.200018
 20
44.306156
 42
0.000000
 10
-159.700018
 20
43.917481
 42
0.000000
 10
-160.200018
 20
43.628806
 42
0.000000
 10
-160.200018
 20
42.496156
 42
0.000000
 10
-159.700018
 20
42.107481
 42
0.000000
 10
-160.200018
 20
41.818806
 42
0.000000
 10
-160.200018
 20
40.686156
 42
0.000000
 10
-159.700018
 20
40.297481
 42
0.000000
 10
-160.200018
 20
40.008806
 42
0.000000
 10
-160.200018
 20
38.876156
 42
0.000000
 10
-159.700018
 20
38.487481
 42
0.000000
 10
-160.200018
 20
38.198806
 42
0.000000
 10
-160.200018
 20
37.066156
 42
0.000000
 10
-159.700018
 20
36.677481
 42
0.000000
 10
-160.200018
 20
36.388806
 42
0.000000
 10
-160.200018
 20
35.256156
 42
0.000000
 10
-159.700018
 20
34.867481
 42
0.000000
 10
-160.200018
 20
34.578806
 42
0.000000
 10
-160.200018
 20
33.446156
 42
0.000000
 10
-159.700018
 20
33.057481
 42
0.000000
 10
-160.200018
 20
32.768806
 42
0.000000
 10
-160.200018
 20
31.636156
 42
0.000000
 10
-159.700018
 20
31.247481
 42
0.000000
 10
-160.200018
 20
30.958806
 42
0.000000
 10
-160.200018
 20
29.826156
 42
0.000000
 10
-159.700018
 20
29.437481
 42
0.000000
 10
-160.200018
 20
29.148806
 42
0.000000
 10
-160.200018
 20
28.016156
 42
0.000000
 10
-159.700018
 20
27.627481
 42
0.000000
 10
-160.200018
 20
27.338806
 42
0.000000
 10
-160.200018
 20
26.206156
 42
0.000000
 10
-159.700018
 20
25.817481
 42
0.000000
 10
-160.200018
 20
25.528806
 42
0.000000
 10
-160.200018
 20
24.396156
 42
0.000000
 10
-159.700018
 20
24.007481
 42
0.000000
 10
-160.200018
 20
23.718806
 42
0.000000
 10
-160.200018
 20
22.586156
 42
0.000000
 10
-159.700018
 20
22.197481
 42
0.000000
 10
-160.200018
 20
21.908806
 42
0.000000
 10
-160.200018
 20
20.776156
 42
0.000000
 10
-159.700018
 20
20.387481
 42
0.000000
 10
-160.200018
 20
20.098806
 42
0.000000
 10
-160.200018
 20
18.966156
 42
0.000000
 10
-159.700018
 20
18.577481
 42
0.000000
 10
-160.200018
 20
18.288806
 42
0.000000
 10
-160.200018
 20
17.156156
 42
0.000000
 10
-159.700018
 20
16.767481
 42
0.000000
 10
-160.200018
 20
16.478806
 42
0.000000
 10
-160.200018
 20
15.346156
 42
0.000000
 10
-159.700018
 20
14.957481
 42
0.000000
 10
-160.200018
 20
14.668806
 42
0.000000
 10
-160.200018
 20
13.536156
 42
0.000000
 10
-159.700018
 20
13.147481
 42
0.000000
 10
-160.200018
 20
12.858806
 42
0.000000
 10
-160.200018
 20
11.726156
 42
0.000000
 10
-159.700018
 20
11.337481
 42
0.000000
 10
-160.200018
 20
11.048806
 42
0.000000
 10
-160.200018
 20
9.916156
 42
0.000000
 10
-159.700018
 20
9.527481
 42
0.000000
 10
-160.200018
 20
9.238806
 42
0.000000
 10
-160.200018
 20
8.106156
 42
0.000000
 10
-159.700018
 20
7.717481
 42
0.000000
 10
-160.200018
 20
7.428806
 42
0.000000
 10
-160.200018
 20
6.296156
 42
0.000000
 10
-159.700018
 20
5.907481
 42
0.000000
 10
-160.200018
 20
5.618806
 42
0.000000
 10
-160.200018
 20
4.486156
 42
0.000000
 10
-159.700018
 20
4.097481
 42
0.000000
 10
-160.200018
 20
3.808806
 42
0.000000
 10
-160.200018
 20
2.676156
 42
0.000000
 10
-159.700018
 20
2.287481
 42
0.000000
 10
-160.365497
 20
1.903267
 42
0.000000
 10
-160.750243
 20
0.974407
 42
0.000000
 10
-160.250243
 20
0.585732
 42
0.000000
 10
-161.118997
 20
0.084157
 42
0.000000
 10
-161.443477
 20
-0.699207
 42
0.000000
 10
-160.943477
 20
-1.087882
 42
0.000000
 10
-161.812231
 20
-1.589456
 42
0.000000
 10
-162.500018
 20
-3.249922
 42
0.000000
  0
ENDBLK
  5
580
100
AcDbEntity
  8
0
100
AcDbBlockEnd
  0
BLOCK
  5
581
100
AcDbEntity
  8
Detail
100
AcDbBlockBegin
  2
B-70
 70
    66
 10
0.000000
 20
0.000000
 30
0.000000
  0
CIRCLE
  5
582
100
AcDbEntity
  8
Detail
  6
CONTINUOUS
 62
     7
100
AcDbCircle
 10
-182.499977
 20
145.250078
 40
0.500000
  0
ENDBLK
  5
583
100
AcDbEntity
  8
0
100
AcDbBlockEnd
  0
BLOCK
  5
584
100
AcDbEntity
  8
Detail
100
AcDbBlockBegin
  2
B-71
 70
    66
 10
0.000000
 20
0.000000
 30
0.000000
  0
CIRCLE
  5
585
100
AcDbEntity
  8
Detail
  6
CONTINUOUS
 62
     4
100
AcDbCircle
 10
9.500023
 20
-87.749922
 40
5.000000
  0
ENDBLK
  5
586
100
AcDbEntity
  8
0
100
AcDbBlockEnd
  0
BLOCK
  5
587
100
AcDbEntity
  8
Detail
100
AcDbBlockBegin
  2
B-72
 70
    66
 10
0.000000
 20
0.000000
 30
0.000000
  0
MTEXT
  5
588
100
AcDbEntity
  8
Detail
 62
     7
100
AcDbMText
 10
79.375021
 20
159.749984
 30
0.000000
 40
4.999992
 41
77.437376
 71
     7
 72
     5
  1
Fugenmörtel ggf. durch 
  7
Arial
 50
0.000000
  0
MTEXT
  5
589
100
AcDbEntity
  8
Detail
 62
     7
100
AcDbMText
 10
79.375021
 20
152.249995
 30
0.000000
 40
4.999992
 41
100.484839
 71
     7
 72
     5
  1
Feldbegrenzungsfuge ersetzen
  7
Arial
 50
0.000000
  0
ENDBLK
  5
58A
100
AcDbEntity
  8
0
100
AcDbBlockEnd
  0
BLOCK
  5
58B
100
AcDbEntity
  8
Detail
100
AcDbBlockBegin
  2
B-73
 70
    66
 10
0.000000
 20
0.000000
 30
0.000000
  0
LWPOLYLINE
  5
58C
100
AcDbEntity
  8
Detail
  6
CONTINUOUS
 62
     6
100
AcDbPolyline
 90
    16
 10
-212.500018
 20
142.250078
 42
0.000000
 10
14.500023
 20
142.250078
 42
0.000000
 10
14.500023
 20
-82.749922
 42
0.000000
 10
10.500023
 20
-82.749922
 42
0.000000
 10
10.500023
 20
138.250078
 42
0.000000
 10
-212.500018
 20
138.250078
 42
0.000000
 10
10.500023
 20
138.250078
 42
0.000000
 10
10.500023
 20
-82.749922
 42
0.000000
 10
8.500023
 20
-82.749922
 42
0.000000
 10
8.500023
 20
136.250078
 42
0.000000
 10
-212.500018
 20
136.250078
 42
0.000000
 10
8.500023
 20
136.250078
 42
0.000000
 10
8.500023
 20
-82.749922
 42
0.000000
 10
2.500023
 20
-82.749922
 42
0.000000
 10
2.500023
 20
130.250078
 42
0.000000
 10
-212.500018
 20
130.250078
 42
0.000000
  0
ENDBLK
  5
59D
100
AcDbEntity
  8
0
100
AcDbBlockEnd
  0
BLOCK
  5
59E
100
AcDbEntity
  8
Detail
100
AcDbBlockBegin
  2
B-74
 70
    66
 10
0.000000
 20
0.000000
 30
0.000000
  0
LWPOLYLINE
  5
59F
100
AcDbEntity
  8
Detail
  6
CONTINUOUS
 62
     3
100
AcDbPolyline
 90
     4
 10
-212.500018
 20
50.250078
 42
0.000000
 10
2.500023
 20
50.250078
 42
0.000000
 10
2.500023
 20
130.250078
 42
0.000000
 10
-212.500018
 20
130.250078
 42
0.000000
  0
ENDBLK
  5
5A4
100
AcDbEntity
  8
0
100
AcDbBlockEnd
  0
BLOCK
  5
5A5
100
AcDbEntity
  8
Detail
100
AcDbBlockBegin
  2
B-75
 70
    66
 10
0.000000
 20
0.000000
 30
0.000000
  0
LWPOLYLINE
  5
5A6
100
AcDbEntity
  8
Detail
  6
CONTINUOUS
 62
     3
100
AcDbPolyline
 90
     5
 10
22.500023
 20
142.250078
 42
0.000000
 10
22.500023
 20
150.250078
 42
0.000000
 10
-177.499977
 20
150.250078
 42
0.000000
 10
-177.499977
 20
142.250078
 42
0.000000
 10
22.500023
 20
142.250078
 42
0.000000
  0
LWPOLYLINE
  5
5AC
100
AcDbEntity
  8
Detail
  6
CONTINUOUS
 62
     3
100
AcDbPolyline
 90
     4
 10
-212.500018
 20
142.250078
 42
0.000000
 10
-187.499977
 20
142.250078
 42
0.000000
 10
-187.499977
 20
150.250078
 42
0.000000
 10
-212.500018
 20
150.250078
 42
0.000000
  0
LWPOLYLINE
  5
5B1
100
AcDbEntity
  8
Detail
  6
CONTINUOUS
 62
     3
100
AcDbPolyline
 90
     5
 10
22.500023
 20
132.250078
 42
0.000000
 10
14.500023
 20
132.250078
 42
0.000000
 10
14.500023
 20
-82.749922
 42
0.000000
 10
22.500023
 20
-82.749922
 42
0.000000
 10
22.500023
 20
132.250078
 42
0.000000
  0
ENDBLK
  5
5B7
100
AcDbEntity
  8
0
100
AcDbBlockEnd
  0
BLOCK
  5
5B8
100
AcDbEntity
  8
Detail
100
AcDbBlockBegin
  2
B-76
 70
    66
 10
0.000000
 20
0.000000
 30
0.000000
  0
LWPOLYLINE
  5
5B9
100
AcDbEntity
  8
Detail
  6
CONTINUOUS
 62
     4
100
AcDbPolyline
 90
     2
 10
-187.499977
 20
150.250078
 42
0.400000
 10
-177.499977
 20
150.250078
 42
0.000000
  0
ENDBLK
  5
5BC
100
AcDbEntity
  8
0
100
AcDbBlockEnd
  0
BLOCK
  5
5BD
100
AcDbEntity
  8
Detail
100
AcDbBlockBegin
  2
B-77
 70
    66
 10
0.000000
 20
0.000000
 30
0.000000
  0
LWPOLYLINE
  5
5BE
100
AcDbEntity
  8
Detail
  6
HIDDEN
 62
     9
100
AcDbPolyline
 90
     2
 10
7.500023
 20
-92.749922
 42
0.000000
 10
7.500023
 20
-196.249941
 42
0.000000
  0
ENDBLK
  5
5C1
100
AcDbEntity
  8
0
100
AcDbBlockEnd
  0
BLOCK
  5
5C2
100
AcDbEntity
  8
Detail
100
AcDbBlockBegin
  2
B-78
 70
    66
 10
0.000000
 20
0.000000
 30
0.000000
  0
LWPOLYLINE
  5
5C3
100
AcDbEntity
  8
Detail
  6
CONTINUOUS
 62
     6
100
AcDbPolyline
 90
    10
 10
2.500023
 20
-196.249941
 42
0.000000
 10
2.500023
 20
-92.749922
 42
0.000000
 10
8.500023
 20
-92.749922
 42
0.000000
 10
8.500023
 20
-196.249941
 42
0.000000
 10
8.500023
 20
-92.749922
 42
0.000000
 10
10.500023
 20
-92.749922
 42
0.000000
 10
10.500023
 20
-196.249941
 42
0.000000
 10
10.500023
 20
-92.749922
 42
0.000000
 10
14.500023
 20
-92.749922
 42
0.000000
 10
14.500023
 20
-196.249941
 42
0.000000
  0
ENDBLK
  5
5CE
100
AcDbEntity
  8
0
100
AcDbBlockEnd
  0
BLOCK
  5
5CF
100
AcDbEntity
  8
Detail
100
AcDbBlockBegin
  2
B-79
 70
    66
 10
0.000000
 20
0.000000
 30
0.000000
  0
LWPOLYLINE
  5
5D0
100
AcDbEntity
  8
Detail
  6
CONTINUOUS
 62
     3
100
AcDbPolyline
 90
     4
 10
14.500023
 20
-196.249941
 42
0.000000
 10
14.500023
 20
-92.749922
 42
0.000000
 10
22.500023
 20
-92.749922
 42
0.000000
 10
22.500023
 20
-196.249941
 42
0.000000
  0
ENDBLK
  5
5D5
100
AcDbEntity
  8
0
100
AcDbBlockEnd
  0
BLOCK
  5
5D6
100
AcDbEntity
  8
Detail
100
AcDbBlockBegin
  2
B-80
 70
    66
 10
0.000000
 20
0.000000
 30
0.000000
  0
LWPOLYLINE
  5
5D7
100
AcDbEntity
  8
Detail
  6
CONTINUOUS
 62
     3
100
AcDbPolyline
 90
     4
 10
-77.499977
 20
-196.249941
 42
0.000000
 10
-77.499977
 20
48.250078
 42
0.000000
 10
2.500023
 20
48.250078
 42
0.000000
 10
2.500023
 20
-196.249941
 42
0.000000
  0
ENDBLK
  5
5DC
100
AcDbEntity
  8
0
100
AcDbBlockEnd
  0
BLOCK
  5
5DD
100
AcDbEntity
  8
Detail
100
AcDbBlockBegin
  2
B-81
 70
    66
 10
0.000000
 20
0.000000
 30
0.000000
  0
LWPOLYLINE
  5
5DE
100
AcDbEntity
  8
Detail
  6
CONTINUOUS
 62
     4
100
AcDbPolyline
 90
     2
 10
22.500023
 20
-92.749922
 42
-0.395583
 10
22.500023
 20
-82.749922
 42
0.000000
  0
ENDBLK
  5
5E1
100
AcDbEntity
  8
0
100
AcDbBlockEnd
  0
BLOCK
  5
5E2
100
AcDbEntity
  8
Detail
100
AcDbBlockBegin
  2
B-82
 70
    66
 10
0.000000
 20
0.000000
 30
0.000000
  0
LWPOLYLINE
  5
5E3
100
AcDbEntity
  8
Detail
  6
CONTINUOUS
 62
     4
100
AcDbPolyline
 90
     2
 10
22.500023
 20
132.250078
 42
-0.400000
 10
22.500023
 20
142.250078
 42
0.000000
  0
ENDBLK
  5
5E6
100
AcDbEntity
  8
0
100
AcDbBlockEnd
  0
ENDSEC
  0
SECTION
  2
ENTITIES
  0
INSERT
  5
5E7
100
AcDbEntity
  8
0
100
AcDbBlockReference
  2
B
 10
0.000000
 20
0.000000
 30
0.000000
 41
1.000000
 42
1.000000
 43
1.000000
 50
0.000000
  0
INSERT
  5
5E8
100
AcDbEntity
  8
0
100
AcDbBlockReference
  2
B-2
 10
0.000000
 20
0.000000
 30
0.000000
 41
1.000000
 42
1.000000
 43
1.000000
 50
0.000000
  0
INSERT
  5
5E9
100
AcDbEntity
  8
0
100
AcDbBlockReference
  2
B-3
 10
0.000000
 20
0.000000
 30
0.000000
 41
1.000000
 42
1.000000
 43
1.000000
 50
0.000000
  0
INSERT
  5
5EA
100
AcDbEntity
  8
0
100
AcDbBlockReference
  2
B-4
 10
0.000000
 20
0.000000
 30
0.000000
 41
1.000000
 42
1.000000
 43
1.000000
 50
0.000000
  0
INSERT
  5
5EB
100
AcDbEntity
  8
0
100
AcDbBlockReference
  2
B-5
 10
0.000000
 20
0.000000
 30
0.000000
 41
1.000000
 42
1.000000
 43
1.000000
 50
0.000000
  0
INSERT
  5
5EC
100
AcDbEntity
  8
0
100
AcDbBlockReference
  2
B-6
 10
0.000000
 20
0.000000
 30
0.000000
 41
1.000000
 42
1.000000
 43
1.000000
 50
0.000000
  0
INSERT
  5
5ED
100
AcDbEntity
  8
0
100
AcDbBlockReference
  2
B-7
 10
0.000000
 20
0.000000
 30
0.000000
 41
1.000000
 42
1.000000
 43
1.000000
 50
0.000000
  0
INSERT
  5
5EE
100
AcDbEntity
  8
0
100
AcDbBlockReference
  2
B-8
 10
0.000000
 20
0.000000
 30
0.000000
 41
1.000000
 42
1.000000
 43
1.000000
 50
0.000000
  0
INSERT
  5
5EF
100
AcDbEntity
  8
0
100
AcDbBlockReference
  2
B-9
 10
0.000000
 20
0.000000
 30
0.000000
 41
1.000000
 42
1.000000
 43
1.000000
 50
0.000000
  0
INSERT
  5
5F0
100
AcDbEntity
  8
0
100
AcDbBlockReference
  2
B-10
 10
0.000000
 20
0.000000
 30
0.000000
 41
1.000000
 42
1.000000
 43
1.000000
 50
0.000000
  0
INSERT
  5
5F1
100
AcDbEntity
  8
0
100
AcDbBlockReference
  2
B-11
 10
0.000000
 20
0.000000
 30
0.000000
 41
1.000000
 42
1.000000
 43
1.000000
 50
0.000000
  0
INSERT
  5
5F2
100
AcDbEntity
  8
0
100
AcDbBlockReference
  2
B-12
 10
0.000000
 20
0.000000
 30
0.000000
 41
1.000000
 42
1.000000
 43
1.000000
 50
0.000000
  0
INSERT
  5
5F3
100
AcDbEntity
  8
0
100
AcDbBlockReference
  2
B-13
 10
0.000000
 20
0.000000
 30
0.000000
 41
1.000000
 42
1.000000
 43
1.000000
 50
0.000000
  0
INSERT
  5
5F4
100
AcDbEntity
  8
0
100
AcDbBlockReference
  2
B-14
 10
0.000000
 20
0.000000
 30
0.000000
 41
1.000000
 42
1.000000
 43
1.000000
 50
0.000000
  0
INSERT
  5
5F5
100
AcDbEntity
  8
Detail
100
AcDbBlockReference
  2
B-15
 10
0.000000
 20
0.000000
 30
0.000000
 41
1.000000
 42
1.000000
 43
1.000000
 50
0.000000
  0
INSERT
  5
5F6
100
AcDbEntity
  8
0
100
AcDbBlockReference
  2
B-16
 10
0.000000
 20
0.000000
 30
0.000000
 41
1.000000
 42
1.000000
 43
1.000000
 50
0.000000
  0
INSERT
  5
5F7
100
AcDbEntity
  8
0
100
AcDbBlockReference
  2
B-17
 10
0.000000
 20
0.000000
 30
0.000000
 41
1.000000
 42
1.000000
 43
1.000000
 50
0.000000
  0
INSERT
  5
5F8
100
AcDbEntity
  8
Detail
100
AcDbBlockReference
  2
B-18
 10
0.000000
 20
0.000000
 30
0.000000
 41
1.000000
 42
1.000000
 43
1.000000
 50
0.000000
  0
INSERT
  5
5F9
100
AcDbEntity
  8
Detail
100
AcDbBlockReference
  2
B-19
 10
0.000000
 20
0.000000
 30
0.000000
 41
1.000000
 42
1.000000
 43
1.000000
 50
0.000000
  0
INSERT
  5
5FA
100
AcDbEntity
  8
Detail
100
AcDbBlockReference
  2
B-20
 10
0.000000
 20
0.000000
 30
0.000000
 41
1.000000
 42
1.000000
 43
1.000000
 50
0.000000
  0
INSERT
  5
5FB
100
AcDbEntity
  8
0
100
AcDbBlockReference
  2
B-21
 10
0.000000
 20
0.000000
 30
0.000000
 41
1.000000
 42
1.000000
 43
1.000000
 50
0.000000
  0
INSERT
  5
5FC
100
AcDbEntity
  8
0
100
AcDbBlockReference
  2
B-22
 10
0.000000
 20
0.000000
 30
0.000000
 41
1.000000
 42
1.000000
 43
1.000000
 50
0.000000
  0
INSERT
  5
5FD
100
AcDbEntity
  8
0
100
AcDbBlockReference
  2
B-23
 10
0.000000
 20
0.000000
 30
0.000000
 41
1.000000
 42
1.000000
 43
1.000000
 50
0.000000
  0
INSERT
  5
5FE
100
AcDbEntity
  8
Detail
100
AcDbBlockReference
  2
B-24
 10
0.000000
 20
0.000000
 30
0.000000
 41
1.000000
 42
1.000000
 43
1.000000
 50
0.000000
  0
INSERT
  5
5FF
100
AcDbEntity
  8
0
100
AcDbBlockReference
  2
B-25
 10
0.000000
 20
0.000000
 30
0.000000
 41
1.000000
 42
1.000000
 43
1.000000
 50
0.000000
  0
INSERT
  5
600
100
AcDbEntity
  8
Detail
100
AcDbBlockReference
  2
B-26
 10
0.000000
 20
0.000000
 30
0.000000
 41
1.000000
 42
1.000000
 43
1.000000
 50
0.000000
  0
INSERT
  5
601
100
AcDbEntity
  8
0
100
AcDbBlockReference
  2
B-27
 10
0.000000
 20
0.000000
 30
0.000000
 41
1.000000
 42
1.000000
 43
1.000000
 50
0.000000
  0
INSERT
  5
602
100
AcDbEntity
  8
0
100
AcDbBlockReference
  2
B-28
 10
0.000000
 20
0.000000
 30
0.000000
 41
1.000000
 42
1.000000
 43
1.000000
 50
0.000000
  0
INSERT
  5
603
100
AcDbEntity
  8
Detail
100
AcDbBlockReference
  2
B-29
 10
0.000000
 20
0.000000
 30
0.000000
 41
1.000000
 42
1.000000
 43
1.000000
 50
0.000000
  0
INSERT
  5
604
100
AcDbEntity
  8
Detail
100
AcDbBlockReference
  2
B-30
 10
0.000000
 20
0.000000
 30
0.000000
 41
1.000000
 42
1.000000
 43
1.000000
 50
0.000000
  0
INSERT
  5
605
100
AcDbEntity
  8
Detail
100
AcDbBlockReference
  2
B-31
 10
0.000000
 20
0.000000
 30
0.000000
 41
1.000000
 42
1.000000
 43
1.000000
 50
0.000000
  0
INSERT
  5
606
100
AcDbEntity
  8
0
100
AcDbBlockReference
  2
B-32
 10
0.000000
 20
0.000000
 30
0.000000
 41
1.000000
 42
1.000000
 43
1.000000
 50
0.000000
  0
INSERT
  5
607
100
AcDbEntity
  8
Detail
100
AcDbBlockReference
  2
B-33
 10
0.000000
 20
0.000000
 30
0.000000
 41
1.000000
 42
1.000000
 43
1.000000
 50
0.000000
  0
INSERT
  5
608
100
AcDbEntity
  8
Detail
100
AcDbBlockReference
  2
B-34
 10
0.000000
 20
0.000000
 30
0.000000
 41
1.000000
 42
1.000000
 43
1.000000
 50
0.000000
  0
INSERT
  5
609
100
AcDbEntity
  8
0
100
AcDbBlockReference
  2
B-35
 10
0.000000
 20
0.000000
 30
0.000000
 41
1.000000
 42
1.000000
 43
1.000000
 50
0.000000
  0
INSERT
  5
60A
100
AcDbEntity
  8
0
100
AcDbBlockReference
  2
B-36
 10
0.000000
 20
0.000000
 30
0.000000
 41
1.000000
 42
1.000000
 43
1.000000
 50
0.000000
  0
INSERT
  5
60B
100
AcDbEntity
  8
Detail
100
AcDbBlockReference
  2
B-37
 10
0.000000
 20
0.000000
 30
0.000000
 41
1.000000
 42
1.000000
 43
1.000000
 50
0.000000
  0
INSERT
  5
60C
100
AcDbEntity
  8
Detail
100
AcDbBlockReference
  2
B-38
 10
0.000000
 20
0.000000
 30
0.000000
 41
1.000000
 42
1.000000
 43
1.000000
 50
0.000000
  0
INSERT
  5
60D
100
AcDbEntity
  8
Detail
100
AcDbBlockReference
  2
B-39
 10
0.000000
 20
0.000000
 30
0.000000
 41
1.000000
 42
1.000000
 43
1.000000
 50
0.000000
  0
INSERT
  5
60E
100
AcDbEntity
  8
Detail
100
AcDbBlockReference
  2
B-40
 10
0.000000
 20
0.000000
 30
0.000000
 41
1.000000
 42
1.000000
 43
1.000000
 50
0.000000
  0
INSERT
  5
60F
100
AcDbEntity
  8
Detail
100
AcDbBlockReference
  2
B-41
 10
0.000000
 20
0.000000
 30
0.000000
 41
1.000000
 42
1.000000
 43
1.000000
 50
0.000000
  0
INSERT
  5
610
100
AcDbEntity
  8
0
100
AcDbBlockReference
  2
B-42
 10
0.000000
 20
0.000000
 30
0.000000
 41
1.000000
 42
1.000000
 43
1.000000
 50
0.000000
  0
INSERT
  5
611
100
AcDbEntity
  8
Detail
100
AcDbBlockReference
  2
B-43
 10
0.000000
 20
0.000000
 30
0.000000
 41
1.000000
 42
1.000000
 43
1.000000
 50
0.000000
  0
INSERT
  5
612
100
AcDbEntity
  8
Detail
100
AcDbBlockReference
  2
B-44
 10
0.000000
 20
0.000000
 30
0.000000
 41
1.000000
 42
1.000000
 43
1.000000
 50
0.000000
  0
INSERT
  5
613
100
AcDbEntity
  8
0
100
AcDbBlockReference
  2
B-45
 10
0.000000
 20
0.000000
 30
0.000000
 41
1.000000
 42
1.000000
 43
1.000000
 50
0.000000
  0
INSERT
  5
614
100
AcDbEntity
  8
0
100
AcDbBlockReference
  2
B-46
 10
0.000000
 20
0.000000
 30
0.000000
 41
1.000000
 42
1.000000
 43
1.000000
 50
0.000000
  0
INSERT
  5
615
100
AcDbEntity
  8
Detail
100
AcDbBlockReference
  2
B-47
 10
0.000000
 20
0.000000
 30
0.000000
 41
1.000000
 42
1.000000
 43
1.000000
 50
0.000000
  0
INSERT
  5
616
100
AcDbEntity
  8
Detail
100
AcDbBlockReference
  2
B-48
 10
0.000000
 20
0.000000
 30
0.000000
 41
1.000000
 42
1.000000
 43
1.000000
 50
0.000000
  0
INSERT
  5
617
100
AcDbEntity
  8
Detail
100
AcDbBlockReference
  2
B-49
 10
0.000000
 20
0.000000
 30
0.000000
 41
1.000000
 42
1.000000
 43
1.000000
 50
0.000000
  0
INSERT
  5
618
100
AcDbEntity
  8
0
100
AcDbBlockReference
  2
B-50
 10
0.000000
 20
0.000000
 30
0.000000
 41
1.000000
 42
1.000000
 43
1.000000
 50
0.000000
  0
INSERT
  5
619
100
AcDbEntity
  8
Detail
100
AcDbBlockReference
  2
B-51
 10
0.000000
 20
0.000000
 30
0.000000
 41
1.000000
 42
1.000000
 43
1.000000
 50
0.000000
  0
INSERT
  5
61A
100
AcDbEntity
  8
Detail
100
AcDbBlockReference
  2
B-52
 10
0.000000
 20
0.000000
 30
0.000000
 41
1.000000
 42
1.000000
 43
1.000000
 50
0.000000
  0
INSERT
  5
61B
100
AcDbEntity
  8
Detail
100
AcDbBlockReference
  2
B-53
 10
0.000000
 20
0.000000
 30
0.000000
 41
1.000000
 42
1.000000
 43
1.000000
 50
0.000000
  0
INSERT
  5
61C
100
AcDbEntity
  8
Detail
100
AcDbBlockReference
  2
B-54
 10
0.000000
 20
0.000000
 30
0.000000
 41
1.000000
 42
1.000000
 43
1.000000
 50
0.000000
  0
INSERT
  5
61D
100
AcDbEntity
  8
Detail
100
AcDbBlockReference
  2
B-55
 10
0.000000
 20
0.000000
 30
0.000000
 41
1.000000
 42
1.000000
 43
1.000000
 50
0.000000
  0
INSERT
  5
61E
100
AcDbEntity
  8
Detail
100
AcDbBlockReference
  2
B-56
 10
0.000000
 20
0.000000
 30
0.000000
 41
1.000000
 42
1.000000
 43
1.000000
 50
0.000000
  0
INSERT
  5
61F
100
AcDbEntity
  8
Detail
100
AcDbBlockReference
  2
B-57
 10
0.000000
 20
0.000000
 30
0.000000
 41
1.000000
 42
1.000000
 43
1.000000
 50
0.000000
  0
INSERT
  5
620
100
AcDbEntity
  8
Detail
100
AcDbBlockReference
  2
B-58
 10
0.000000
 20
0.000000
 30
0.000000
 41
1.000000
 42
1.000000
 43
1.000000
 50
0.000000
  0
INSERT
  5
621
100
AcDbEntity
  8
Detail
100
AcDbBlockReference
  2
B-59
 10
0.000000
 20
0.000000
 30
0.000000
 41
1.000000
 42
1.000000
 43
1.000000
 50
0.000000
  0
INSERT
  5
622
100
AcDbEntity
  8
Detail
100
AcDbBlockReference
  2
B-60
 10
0.000000
 20
0.000000
 30
0.000000
 41
1.000000
 42
1.000000
 43
1.000000
 50
0.000000
  0
INSERT
  5
623
100
AcDbEntity
  8
Detail
100
AcDbBlockReference
  2
B-61
 10
0.000000
 20
0.000000
 30
0.000000
 41
1.000000
 42
1.000000
 43
1.000000
 50
0.000000
  0
INSERT
  5
624
100
AcDbEntity
  8
Detail
100
AcDbBlockReference
  2
B-62
 10
0.000000
 20
0.000000
 30
0.000000
 41
1.000000
 42
1.000000
 43
1.000000
 50
0.000000
  0
INSERT
  5
625
100
AcDbEntity
  8
Detail
100
AcDbBlockReference
  2
B-63
 10
0.000000
 20
0.000000
 30
0.000000
 41
1.000000
 42
1.000000
 43
1.000000
 50
0.000000
  0
INSERT
  5
626
100
AcDbEntity
  8
Detail
100
AcDbBlockReference
  2
B-64
 10
0.000000
 20
0.000000
 30
0.000000
 41
1.000000
 42
1.000000
 43
1.000000
 50
0.000000
  0
INSERT
  5
627
100
AcDbEntity
  8
Detail
100
AcDbBlockReference
  2
B-65
 10
0.000000
 20
0.000000
 30
0.000000
 41
1.000000
 42
1.000000
 43
1.000000
 50
0.000000
  0
INSERT
  5
628
100
AcDbEntity
  8
Detail
100
AcDbBlockReference
  2
B-66
 10
0.000000
 20
0.000000
 30
0.000000
 41
1.000000
 42
1.000000
 43
1.000000
 50
0.000000
  0
INSERT
  5
629
100
AcDbEntity
  8
Detail
100
AcDbBlockReference
  2
B-68
 10
0.000000
 20
0.000000
 30
0.000000
 41
1.000000
 42
1.000000
 43
1.000000
 50
0.000000
  0
INSERT
  5
62A
100
AcDbEntity
  8
Detail
100
AcDbBlockReference
  2
B-70
 10
0.000000
 20
0.000000
 30
0.000000
 41
1.000000
 42
1.000000
 43
1.000000
 50
0.000000
  0
INSERT
  5
62B
100
AcDbEntity
  8
Detail
100
AcDbBlockReference
  2
B-71
 10
0.000000
 20
0.000000
 30
0.000000
 41
1.000000
 42
1.000000
 43
1.000000
 50
0.000000
  0
INSERT
  5
62C
100
AcDbEntity
  8
Detail
100
AcDbBlockReference
  2
B-72
 10
0.000000
 20
0.000000
 30
0.000000
 41
1.000000
 42
1.000000
 43
1.000000
 50
0.000000
  0
INSERT
  5
62D
100
AcDbEntity
  8
Detail
100
AcDbBlockReference
  2
B-73
 10
0.000000
 20
0.000000
 30
0.000000
 41
1.000000
 42
1.000000
 43
1.000000
 50
0.000000
  0
INSERT
  5
62E
100
AcDbEntity
  8
Detail
100
AcDbBlockReference
  2
B-74
 10
0.000000
 20
0.000000
 30
0.000000
 41
1.000000
 42
1.000000
 43
1.000000
 50
0.000000
  0
INSERT
  5
62F
100
AcDbEntity
  8
Detail
100
AcDbBlockReference
  2
B-75
 10
0.000000
 20
0.000000
 30
0.000000
 41
1.000000
 42
1.000000
 43
1.000000
 50
0.000000
  0
INSERT
  5
630
100
AcDbEntity
  8
Detail
100
AcDbBlockReference
  2
B-76
 10
0.000000
 20
0.000000
 30
0.000000
 41
1.000000
 42
1.000000
 43
1.000000
 50
0.000000
  0
INSERT
  5
631
100
AcDbEntity
  8
Detail
100
AcDbBlockReference
  2
B-77
 10
0.000000
 20
0.000000
 30
0.000000
 41
1.000000
 42
1.000000
 43
1.000000
 50
0.000000
  0
INSERT
  5
632
100
AcDbEntity
  8
Detail
100
AcDbBlockReference
  2
B-78
 10
0.000000
 20
0.000000
 30
0.000000
 41
1.000000
 42
1.000000
 43
1.000000
 50
0.000000
  0
INSERT
  5
633
100
AcDbEntity
  8
Detail
100
AcDbBlockReference
  2
B-79
 10
0.000000
 20
0.000000
 30
0.000000
 41
1.000000
 42
1.000000
 43
1.000000
 50
0.000000
  0
INSERT
  5
634
100
AcDbEntity
  8
Detail
100
AcDbBlockReference
  2
B-80
 10
0.000000
 20
0.000000
 30
0.000000
 41
1.000000
 42
1.000000
 43
1.000000
 50
0.000000
  0
INSERT
  5
635
100
AcDbEntity
  8
Detail
100
AcDbBlockReference
  2
B-81
 10
0.000000
 20
0.000000
 30
0.000000
 41
1.000000
 42
1.000000
 43
1.000000
 50
0.000000
  0
INSERT
  5
636
100
AcDbEntity
  8
Detail
100
AcDbBlockReference
  2
B-82
 10
0.000000
 20
0.000000
 30
0.000000
 41
1.000000
 42
1.000000
 43
1.000000
 50
0.000000
  0
ENDSEC
  0
SECTION
  2
OBJECTS
  0
DICTIONARY
  5
C
330
0
100
AcDbDictionary
281
     1
  3
ACAD_COLOR
350
6B
  3
ACAD_GROUP
350
D
  3
ACAD_IMAGE_DICT
350
1E2
  3
ACAD_IMAGE_VARS
350
1E3
  3
ACAD_MATERIAL
350
6A
  3
ACAD_MLINESTYLE
350
17
  3
ACAD_PLOTSETTINGS
350
19
  3
ACAD_PLOTSTYLENAME
350
E
  3
ACAD_SCALELIST
350
10C
  3
ACAD_TABLESTYLE
350
7E
  3
ACAD_VISUALSTYLE
350
EF
  3
ACDB_RECOMPOSE_DATA
350
15D
  3
AcDbVariableDictionary
350
5E
  0
DICTIONARY
  5
13C
330
10
100
AcDbDictionary
280
     1
281
     1
  0
DICTIONARY
  5
203
330
202
100
AcDbDictionary
280
     1
281
     1
  0
DICTIONARY
  5
6B
102
{ACAD_REACTORS
330
C
102
}
330
C
100
AcDbDictionary
281
     1
  0
DICTIONARY
  5
D
102
{ACAD_REACTORS
330
C
102
}
330
C
100
AcDbDictionary
281
     1
  0
DICTIONARY
  5
1E2
102
{ACAD_REACTORS
330
C
102
}
330
C
100
AcDbDictionary
281
     1
  3
WDVS mit Hartbekleidung_Aussenecke_7_1.tif
350
218
  0
RASTERVARIABLES
  5
1E3
102
{ACAD_REACTORS
330
C
102
}
330
C
100
AcDbRasterVariables
 90
        0
 70
     1
 71
     1
 72
     1
  0
DICTIONARY
  5
6A
102
{ACAD_REACTORS
330
C
102
}
330
C
100
AcDbDictionary
281
     1
  3
ByBlock
350
ED
  3
ByLayer
350
EC
  3
Global
350
EE
  0
DICTIONARY
  5
12D
102
{ACAD_REACTORS
330
C
102
}
330
C
100
AcDbDictionary
281
     1
  3
Annotative
350
13B
  3
Standard
350
12E
  0
DICTIONARY
  5
17
102
{ACAD_REACTORS
330
C
102
}
330
C
100
AcDbDictionary
281
     1
  3
Standard
350
18
  0
DICTIONARY
  5
19
102
{ACAD_REACTORS
330
C
102
}
330
C
100
AcDbDictionary
281
     1
  0
ACDBDICTIONARYWDFLT
  5
E
102
{ACAD_REACTORS
330
C
102
}
330
C
100
AcDbDictionary
281
     1
  3
Normal
350
F
100
AcDbDictionaryWithDefault
340
F
  0
DICTIONARY
  5
10C
102
{ACAD_REACTORS
330
C
102
}
330
C
100
AcDbDictionary
281
     1
  3
A0
350
10D
  3
A1
350
1BE
  3
A2
350
1BF
  3
A3
350
1C0
  3
A4
350
1C1
  3
A5
350
1C2
  3
A6
350
1C3
  3
A7
350
1C4
  3
A8
350
1C5
  3
A9
350
1C6
  3
B0
350
1C7
  3
B1
350
1C8
  3
B2
350
1C9
  3
B3
350
1CA
  3
B4
350
1CB
  3
B5
350
1CC
  3
B6
350
1CD
  0
DICTIONARY
  5
7E
102
{ACAD_REACTORS
330
C
102
}
330
C
100
AcDbDictionary
281
     1
  3
Standard
350
7F
  0
DICTIONARY
  5
EF
102
{ACAD_REACTORS
330
C
102
}
330
C
100
AcDbDictionary
281
     1
  3
2dWireframe
350
F5
  3
3D Hidden
350
F7
  3
3dWireframe
350
F6
  3
Basic
350
F4
  3
Brighten
350
FB
  3
ColorChange
350
FF
  3
Conceptual
350
F8
  3
Dim
350
FA
  3
Facepattern
350
FE
  3
Flat
350
F0
  3
FlatWithEdges
350
F1
  3
Gouraud
350
F2
  3
GouraudWithEdges
350
F3
  3
Linepattern
350
FD
  3
Realistic
350
F9
  3
Thicken
350
FC
  0
XRECORD
  5
15D
102
{ACAD_REACTORS
330
C
102
}
330
C
100
AcDbXrecord
280
     1
 90
        1
330
7F
  0
DICTIONARY
  5
5E
102
{ACAD_REACTORS
330
C
102
}
330
C
100
AcDbDictionary
281
     1
  3
CANNOSCALE
350
146
  3
CMLEADERSTYLE
350
145
  3
CTABLESTYLE
350
84
  3
DIMASSOC
350
5F
  3
HIDETEXT
350
63
  3
LAYEREVAL
350
1AE
  3
LAYERNOTIFY
350
1AF
  0
MATERIAL
  5
ED
102
{ACAD_REACTORS
330
6A
102
}
330
6A
100
AcDbMaterial
  1
ByBlock
 94
       63
  0
MATERIAL
  5
EC
102
{ACAD_REACTORS
330
6A
102
}
330
6A
100
AcDbMaterial
  1
ByLayer
 94
       63
  0
MATERIAL
  5
EE
102
{ACAD_XDICTIONARY
360
173
102
}
102
{ACAD_REACTORS
330
6A
102
}
330
6A
100
AcDbMaterial
  1
Global
 43
0.0007999999797903
 43
0.0
 43
0.0
 43
0.0
 43
0.0
 43
0.0007999999797903
 43
0.0
 43
0.0
 43
0.0
 43
0.0
 43
1.0
 43
0.0
 43
0.0
 43
0.0
 43
0.0
 43
1.0
 49
0.0007999999797903
 49
0.0
 49
0.0
 49
0.0
 49
0.0
 49
0.0007999999797903
 49
0.0
 49
0.0
 49
0.0
 49
0.0
 49
1.0
 49
0.0
 49
0.0
 49
0.0
 49
0.0
 49
1.0
142
0.0007999999797903
142
0.0
142
0.0
142
0.0
142
0.0
142
0.0007999999797903
142
0.0
142
0.0
142
0.0
142
0.0
142
1.0
142
0.0
142
0.0
142
0.0
142
0.0
142
1.0
144
0.0007999999797903
144
0.0
144
0.0
144
0.0
144
0.0
144
0.0007999999797903
144
0.0
144
0.0
144
0.0
144
0.0
144
1.0
144
0.0
144
0.0
144
0.0
144
0.0
144
1.0
 94
       63
1001
ACAD
1070
    -1
1070
     3
1070
     0
1000

1071
        0
1070
     0
  0
MLINESTYLE
  5
18
102
{ACAD_REACTORS
330
17
102
}
330
17
100
AcDbMlineStyle
  2
STANDARD
 70
     0
  3

 62
   256
 51
90.0
 52
90.0
 71
     2
 49
0.5
 62
   256
  6
BYLAYER
 49
-0.5
 62
   256
  6
BYLAYER
  0
ACDBPLACEHOLDER
  5
F
102
{ACAD_REACTORS
330
E
102
}
330
E
  0
SCALE
  5
10D
102
{ACAD_REACTORS
330
10C
102
}
330
10C
100
AcDbScale
 70
     0
300
1:1
140
1.0
141
1.0
290
     1
  0
SCALE
  5
1BE
102
{ACAD_REACTORS
330
10C
102
}
330
10C
100
AcDbScale
 70
     0
300
1:2
140
1.0
141
2.0
290
     0
  0
SCALE
  5
1BF
102
{ACAD_REACTORS
330
10C
102
}
330
10C
100
AcDbScale
 70
     0
300
1:4
140
1.0
141
4.0
290
     0
  0
SCALE
  5
1C0
102
{ACAD_REACTORS
330
10C
102
}
330
10C
100
AcDbScale
 70
     0
300
1:5
140
1.0
141
5.0
290
     0
  0
SCALE
  5
1C1
102
{ACAD_REACTORS
330
10C
102
}
330
10C
100
AcDbScale
 70
     0
300
1:8
140
1.0
141
8.0
290
     0
  0
SCALE
  5
1C2
102
{ACAD_REACTORS
330
10C
102
}
330
10C
100
AcDbScale
 70
     0
300
1:10
140
1.0
141
10.0
290
     0
  0
SCALE
  5
1C3
102
{ACAD_REACTORS
330
10C
102
}
330
10C
100
AcDbScale
 70
     0
300
1:16
140
1.0
141
16.0
290
     0
  0
SCALE
  5
1C4
102
{ACAD_REACTORS
330
10C
102
}
330
10C
100
AcDbScale
 70
     0
300
1:20
140
1.0
141
20.0
290
     0
  0
SCALE
  5
1C5
102
{ACAD_REACTORS
330
10C
102
}
330
10C
100
AcDbScale
 70
     0
300
1:30
140
1.0
141
30.0
290
     0
  0
SCALE
  5
1C6
102
{ACAD_REACTORS
330
10C
102
}
330
10C
100
AcDbScale
 70
     0
300
1:40
140
1.0
141
40.0
290
     0
  0
SCALE
  5
1C7
102
{ACAD_REACTORS
330
10C
102
}
330
10C
100
AcDbScale
 70
     0
300
1:50
140
1.0
141
50.0
290
     0
  0
SCALE
  5
1C8
102
{ACAD_REACTORS
330
10C
102
}
330
10C
100
AcDbScale
 70
     0
300
1:100
140
1.0
141
100.0
290
     0
  0
SCALE
  5
1C9
102
{ACAD_REACTORS
330
10C
102
}
330
10C
100
AcDbScale
 70
     0
300
2:1
140
2.0
141
1.0
290
     0
  0
SCALE
  5
1CA
102
{ACAD_REACTORS
330
10C
102
}
330
10C
100
AcDbScale
 70
     0
300
4:1
140
4.0
141
1.0
290
     0
  0
SCALE
  5
1CB
102
{ACAD_REACTORS
330
10C
102
}
330
10C
100
AcDbScale
 70
     0
300
8:1
140
8.0
141
1.0
290
     0
  0
SCALE
  5
1CC
102
{ACAD_REACTORS
330
10C
102
}
330
10C
100
AcDbScale
 70
     0
300
10:1
140
10.0
141
1.0
290
     0
  0
SCALE
  5
1CD
102
{ACAD_REACTORS
330
10C
102
}
330
10C
100
AcDbScale
 70
     0
300
100:1
140
100.0
141
1.0
290
     0
  0
TABLESTYLE
  5
7F
102
{ACAD_XDICTIONARY
360
162
102
}
102
{ACAD_REACTORS
330
7E
102
}
330
7E
100
AcDbTableStyle
  3
Standard
 70
     0
 71
     0
 40
1.5
 41
1.5
280
     0
281
     0
  7
Standard
140
4.5
170
     2
 62
     0
 63
     7
283
     0
 90
      512
 91
        0
  1

274
    -2
284
     1
 64
     0
275
    -2
285
     1
 65
     0
276
    -2
286
     1
 66
     0
277
    -2
287
     1
 67
     0
278
    -2
288
     1
 68
     0
279
    -2
289
     1
 69
     0
  7
Standard
140
6.0
170
     5
 62
     0
 63
     7
283
     0
 90
      512
 91
        0
  1

274
    -2
284
     1
 64
     0
275
    -2
285
     1
 65
     0
276
    -2
286
     1
 66
     0
277
    -2
287
     1
 67
     0
278
    -2
288
     1
 68
     0
279
    -2
289
     1
 69
     0
  7
Standard
140
4.5
170
     5
 62
     0
 63
     7
283
     0
 90
      512
 91
        0
  1

274
    -2
284
     1
 64
     0
275
    -2
285
     1
 65
     0
276
    -2
286
     1
 66
     0
277
    -2
287
     1
 67
     0
278
    -2
288
     1
 68
     0
279
    -2
289
     1
 69
     0
  0
VISUALSTYLE
  5
F5
102
{ACAD_REACTORS
330
EF
102
}
330
EF
100
AcDbVisualStyle
  2
2dWireframe
 70
     4
 71
     0
 72
     2
 73
     1
 90
        0
 40
-0.6
 41
-30.0
 62
     5
 63
     7
421
 16777215
 74
     1
 91
        4
 64
     7
 65
   257
 75
     1
175
     1
 42
1.0
 92
        0
 66
   257
 43
1.0
 76
     1
 77
     6
 78
     2
 67
     7
 79
     5
170
     0
171
     0
290
     0
174
     0
 93
        1
 44
0.0
173
     0
291
     0
 45
0.0
  0
VISUALSTYLE
  5
F7
102
{ACAD_REACTORS
330
EF
102
}
330
EF
100
AcDbVisualStyle
  2
3D Hidden
 70
     6
 71
     1
 72
     2
 73
     2
 90
        0
 40
-0.6
 41
-30.0
 62
     5
 63
     7
421
 16777215
 74
     2
 91
        2
 64
     7
 65
   257
 75
     2
175
     1
 42
40.0
 92
        0
 66
   257
 43
1.0
 76
     1
 77
     6
 78
     2
 67
     7
 79
     3
170
     0
171
     0
290
     0
174
     0
 93
        1
 44
0.0
173
     0
291
     0
 45
0.0
  0
VISUALSTYLE
  5
F6
102
{ACAD_REACTORS
330
EF
102
}
330
EF
100
AcDbVisualStyle
  2
3dWireframe
 70
     5
 71
     0
 72
     2
 73
     1
 90
        0
 40
-0.6
 41
-30.0
 62
     5
 63
     7
421
 16777215
 74
     1
 91
        4
 64
     7
 65
   257
 75
     1
175
     1
 42
1.0
 92
        0
 66
   257
 43
1.0
 76
     1
 77
     6
 78
     2
 67
     7
 79
     5
170
     0
171
     0
290
     0
174
     0
 93
        1
 44
0.0
173
     0
291
     0
 45
0.0
  0
VISUALSTYLE
  5
F4
102
{ACAD_REACTORS
330
EF
102
}
330
EF
100
AcDbVisualStyle
  2
Basic
 70
     7
 71
     1
 72
     0
 73
     1
 90
        0
 40
-0.6
 41
-30.0
 62
     5
 63
     7
421
 16777215
 74
     0
 91
        4
 64
     7
 65
   257
 75
     1
175
     1
 42
1.0
 92
        8
 66
     7
 43
1.0
 76
     1
 77
     6
 78
     2
 67
     7
 79
     5
170
     0
171
     0
290
     0
174
     0
 93
        1
 44
0.0
173
     0
291
     1
 45
0.0
  0
VISUALSTYLE
  5
FB
102
{ACAD_REACTORS
330
EF
102
}
330
EF
100
AcDbVisualStyle
  2
Brighten
 70
    12
 71
     2
 72
     2
 73
     1
 90
        0
 40
-0.6
 41
-30.0
 62
     5
 63
     7
421
 16777215
 74
     1
 91
        4
 64
     7
 65
   257
 75
     1
175
     1
 42
1.0
 92
        8
 66
     7
 43
1.0
 76
     1
 77
     6
 78
     2
 67
     7
 79
     5
170
     0
171
     0
290
     0
174
     0
 93
        1
 44
50.0
173
     0
291
     1
 45
0.0
  0
VISUALSTYLE
  5
FF
102
{ACAD_REACTORS
330
EF
102
}
330
EF
100
AcDbVisualStyle
  2
ColorChange
 70
    16
 71
     2
 72
     2
 73
     3
 90
        0
 40
-0.6
 41
-30.0
 62
     5
 63
     8
421
  8421504
 74
     1
 91
        4
 64
     7
 65
   257
 75
     1
175
     1
 42
1.0
 92
        8
 66
     8
424
  8421504
 43
1.0
 76
     1
 77
     6
 78
     2
 67
     7
 79
     5
170
     0
171
     0
290
     0
174
     0
 93
        1
 44
0.0
173
     0
291
     1
 45
0.0
  0
VISUALSTYLE
  5
F8
102
{ACAD_REACTORS
330
EF
102
}
330
EF
100
AcDbVisualStyle
  2
Conceptual
 70
     9
 71
     3
 72
     2
 73
     1
 90
        0
 40
-0.6
 41
-30.0
 62
     5
 63
     7
421
 16777215
 74
     2
 91
        2
 64
     7
 65
   257
 75
     1
175
     1
 42
40.0
 92
        8
 66
     7
 43
1.0
 76
     1
 77
     6
 78
     2
 67
     7
 79
     3
170
     0
171
     0
290
     0
174
     0
 93
        1
 44
0.0
173
     0
291
     0
 45
0.0
  0
VISUALSTYLE
  5
FA
102
{ACAD_REACTORS
330
EF
102
}
330
EF
100
AcDbVisualStyle
  2
Dim
 70
    11
 71
     2
 72
     2
 73
     1
 90
        0
 40
-0.6
 41
-30.0
 62
     5
 63
     7
421
 16777215
 74
     1
 91
        4
 64
     7
 65
   257
 75
     1
175
     1
 42
1.0
 92
        8
 66
     7
 43
1.0
 76
     1
 77
     6
 78
     2
 67
     7
 79
     5
170
     0
171
     0
290
     0
174
     0
 93
        1
 44
-50.0
173
     0
291
     1
 45
0.0
  0
VISUALSTYLE
  5
FE
102
{ACAD_REACTORS
330
EF
102
}
330
EF
100
AcDbVisualStyle
  2
Facepattern
 70
    15
 71
     2
 72
     2
 73
     1
 90
        0
 40
-0.6
 41
-30.0
 62
     5
 63
     7
421
 16777215
 74
     1
 91
        4
 64
     7
 65
   257
 75
     1
175
     1
 42
1.0
 92
        8
 66
     7
 43
1.0
 76
     1
 77
     6
 78
     2
 67
     7
 79
     5
170
     0
171
     0
290
     0
174
     0
 93
        1
 44
0.0
173
     0
291
     1
 45
0.0
  0
VISUALSTYLE
  5
F0
102
{ACAD_REACTORS
330
EF
102
}
330
EF
100
AcDbVisualStyle
  2
Flat
 70
     0
 71
     2
 72
     1
 73
     1
 90
        2
 40
-0.6
 41
30.0
 62
     5
 63
     7
421
 16777215
 74
     0
 91
        4
 64
     7
 65
   257
 75
     1
175
     1
 42
1.0
 92
        8
 66
     7
 43
1.0
 76
     1
 77
     6
 78
     2
 67
     7
 79
     5
170
     0
171
     0
290
     0
174
     0
 93
        1
 44
0.0
173
     0
291
     1
 45
0.0
  0
VISUALSTYLE
  5
F1
102
{ACAD_REACTORS
330
EF
102
}
330
EF
100
AcDbVisualStyle
  2
FlatWithEdges
 70
     1
 71
     2
 72
     1
 73
     1
 90
        2
 40
-0.6
 41
30.0
 62
     5
 63
     7
421
 16777215
 74
     1
 91
        4
 64
     7
 65
   257
 75
     1
175
     1
 42
1.0
 92
        0
 66
   257
 43
1.0
 76
     1
 77
     6
 78
     2
 67
     7
 79
     5
170
     0
171
     0
290
     0
174
     0
 93
        1
 44
0.0
173
     0
291
     1
 45
0.0
  0
VISUALSTYLE
  5
F2
102
{ACAD_REACTORS
330
EF
102
}
330
EF
100
AcDbVisualStyle
  2
Gouraud
 70
     2
 71
     2
 72
     2
 73
     1
 90
        2
 40
-0.6
 41
30.0
 62
     5
 63
     7
421
 16777215
 74
     0
 91
        4
 64
     7
 65
   257
 75
     1
175
     1
 42
1.0
 92
        0
 66
     7
 43
1.0
 76
     1
 77
     6
 78
     2
 67
     7
 79
     5
170
     0
171
     0
290
     0
174
     0
 93
        1
 44
0.0
173
     0
291
     1
 45
0.0
  0
VISUALSTYLE
  5
F3
102
{ACAD_REACTORS
330
EF
102
}
330
EF
100
AcDbVisualStyle
  2
GouraudWithEdges
 70
     3
 71
     2
 72
     2
 73
     1
 90
        2
 40
-0.6
 41
30.0
 62
     5
 63
     7
421
 16777215
 74
     1
 91
        4
 64
     7
 65
   257
 75
     1
175
     1
 42
1.0
 92
        0
 66
   257
 43
1.0
 76
     1
 77
     6
 78
     2
 67
     7
 79
     5
170
     0
171
     0
290
     0
174
     0
 93
        1
 44
0.0
173
     0
291
     1
 45
0.0
  0
VISUALSTYLE
  5
FD
102
{ACAD_REACTORS
330
EF
102
}
330
EF
100
AcDbVisualStyle
  2
Linepattern
 70
    14
 71
     2
 72
     2
 73
     1
 90
        0
 40
-0.6
 41
-30.0
 62
     5
 63
     7
421
 16777215
 74
     1
 91
        4
 64
     7
 65
   257
 75
     7
175
     7
 42
1.0
 92
        8
 66
     7
 43
1.0
 76
     1
 77
     6
 78
     2
 67
     7
 79
     5
170
     0
171
     0
290
     0
174
     0
 93
        1
 44
0.0
173
     0
291
     1
 45
0.0
  0
VISUALSTYLE
  5
F9
102
{ACAD_REACTORS
330
EF
102
}
330
EF
100
AcDbVisualStyle
  2
Realistic
 70
     8
 71
     2
 72
     2
 73
     1
 90
        0
 40
-0.6
 41
-30.0
 62
     5
 63
     7
421
 16777215
 74
     1
 91
        0
 64
     7
 65
   257
 75
     1
175
     1
 42
1.0
 92
        8
 66
     8
424
  7895160
 43
1.0
 76
     1
 77
     6
 78
     2
 67
     7
 79
     5
170
     0
171
     0
290
     0
174
     0
 93
       13
 44
0.0
173
     0
291
     0
 45
0.0
  0
VISUALSTYLE
  5
FC
102
{ACAD_REACTORS
330
EF
102
}
330
EF
100
AcDbVisualStyle
  2
Thicken
 70
    13
 71
     2
 72
     2
 73
     1
 90
        0
 40
-0.6
 41
-30.0
 62
     5
 63
     7
421
 16777215
 74
     1
 91
        4
 64
     7
 65
   257
 75
     1
175
     1
 42
1.0
 92
       12
 66
     7
 43
1.0
 76
     1
 77
     6
 78
     2
 67
     7
 79
     5
170
     0
171
     0
290
     0
174
     0
 93
        1
 44
0.0
173
     0
291
     1
 45
0.0
  0
DICTIONARYVAR
  5
146
102
{ACAD_REACTORS
330
5E
102
}
330
5E
100
DictionaryVariables
280
     0
  1
1:1
  0
DICTIONARYVAR
  5
145
102
{ACAD_REACTORS
330
5E
102
}
330
5E
100
DictionaryVariables
280
     0
  1
STANDARD
  0
DICTIONARYVAR
  5
84
102
{ACAD_REACTORS
330
5E
102
}
330
5E
100
DictionaryVariables
280
     0
  1
STANDARD
  0
DICTIONARYVAR
  5
5F
102
{ACAD_REACTORS
330
5E
102
}
330
5E
100
DictionaryVariables
280
     0
  1
2
  0
DICTIONARYVAR
  5
63
102
{ACAD_REACTORS
330
5E
102
}
330
5E
100
DictionaryVariables
280
     0
  1
1
  0
DICTIONARYVAR
  5
1AE
102
{ACAD_REACTORS
330
5E
102
}
330
5E
100
DictionaryVariables
280
     0
  1
0
  0
DICTIONARYVAR
  5
1AF
102
{ACAD_REACTORS
330
5E
102
}
330
5E
100
DictionaryVariables
280
     0
  1
0
  0
DICTIONARY
  5
173
330
EE
100
AcDbDictionary
280
     1
281
     1
  3
BUMPTILE
360
175
  3
DIFFUSETILE
360
174
  3
OPACITYTILE
360
176
  3
REFLECTIONTILE
360
177
  0
DICTIONARY
  5
162
330
7F
100
AcDbDictionary
280
     1
281
     1
  3
ACAD_ROUNDTRIP_2008_TABLESTYLE_CELLSTYLEMAP
360
1E7
  0
XRECORD
  5
175
102
{ACAD_REACTORS
330
173
102
}
330
173
100
AcDbXrecord
280
     1
270
     1
271
     1
  0
XRECORD
  5
174
102
{ACAD_REACTORS
330
173
102
}
330
173
100
AcDbXrecord
280
     1
270
     1
271
     1
  0
XRECORD
  5
176
102
{ACAD_REACTORS
330
173
102
}
330
173
100
AcDbXrecord
280
     1
270
     1
271
     1
  0
XRECORD
  5
177
102
{ACAD_REACTORS
330
173
102
}
330
173
100
AcDbXrecord
280
     1
270
     1
271
     1
  0
CELLSTYLEMAP
  5
1E7
102
{ACAD_REACTORS
330
162
102
}
330
162
100
AcDbCellStyleMap
 90
        3
300
CELLSTYLE
  1
TABLEFORMAT_BEGIN
 90
        5
170
     1
 91
        0
 92
    32768
 62
   257
 93
        1
300
CONTENTFORMAT
  1
CONTENTFORMAT_BEGIN
 90
        0
 91
        0
 92
      512
 93
        0
300

 40
0.0
140
1.0
 94
        5
 62
     0
340
11
144
6.0
309
CONTENTFORMAT_END
171
     1
301
MARGIN
  1
CELLMARGIN_BEGIN
 40
1.5
 40
1.5
 40
1.5
 40
1.5
 40
4.5
 40
4.5
309
CELLMARGIN_END
 94
        6
 95
        1
302
GRIDFORMAT
  1
GRIDFORMAT_BEGIN
 90
        0
 91
        1
 62
     0
 92
       -2
340
8CA
 93
        0
 40
1.125
309
GRIDFORMAT_END
 95
        2
302
GRIDFORMAT
  1
GRIDFORMAT_BEGIN
 90
        0
 91
        1
 62
     0
 92
       -2
340
8CA
 93
        0
 40
1.125
309
GRIDFORMAT_END
 95
        4
302
GRIDFORMAT
  1
GRIDFORMAT_BEGIN
 90
        0
 91
        1
 62
     0
 92
       -2
340
8CA
 93
        0
 40
1.125
309
GRIDFORMAT_END
 95
        8
302
GRIDFORMAT
  1
GRIDFORMAT_BEGIN
 90
        0
 91
        1
 62
     0
 92
       -2
340
8CA
 93
        0
 40
1.125
309
GRIDFORMAT_END
 95
       16
302
GRIDFORMAT
  1
GRIDFORMAT_BEGIN
 90
        0
 91
        1
 62
     0
 92
       -2
340
8CA
 93
        0
 40
1.125
309
GRIDFORMAT_END
 95
       32
302
GRIDFORMAT
  1
GRIDFORMAT_BEGIN
 90
        0
 91
        1
 62
     0
 92
       -2
340
8CA
 93
        0
 40
1.125
309
GRIDFORMAT_END
309
TABLEFORMAT_END
  1
CELLSTYLE_BEGIN
 90
        1
 91
        1
300
_TITLE
309
CELLSTYLE_END
300
CELLSTYLE
  1
TABLEFORMAT_BEGIN
 90
        5
170
     1
 91
        0
 92
        0
 62
   257
 93
        1
300
CONTENTFORMAT
  1
CONTENTFORMAT_BEGIN
 90
        0
 91
        0
 92
      512
 93
        0
300

 40
0.0
140
1.0
 94
        5
 62
     0
340
11
144
4.5
309
CONTENTFORMAT_END
171
     1
301
MARGIN
  1
CELLMARGIN_BEGIN
 40
1.5
 40
1.5
 40
1.5
 40
1.5
 40
4.5
 40
4.5
309
CELLMARGIN_END
 94
        6
 95
        1
302
GRIDFORMAT
  1
GRIDFORMAT_BEGIN
 90
        0
 91
        1
 62
     0
 92
       -2
340
8CA
 93
        0
 40
1.125
309
GRIDFORMAT_END
 95
        2
302
GRIDFORMAT
  1
GRIDFORMAT_BEGIN
 90
        0
 91
        1
 62
     0
 92
       -2
340
8CA
 93
        0
 40
1.125
309
GRIDFORMAT_END
 95
        4
302
GRIDFORMAT
  1
GRIDFORMAT_BEGIN
 90
        0
 91
        1
 62
     0
 92
       -2
340
8CA
 93
        0
 40
1.125
309
GRIDFORMAT_END
 95
        8
302
GRIDFORMAT
  1
GRIDFORMAT_BEGIN
 90
        0
 91
        1
 62
     0
 92
       -2
340
8CA
 93
        0
 40
1.125
309
GRIDFORMAT_END
 95
       16
302
GRIDFORMAT
  1
GRIDFORMAT_BEGIN
 90
        0
 91
        1
 62
     0
 92
       -2
340
8CA
 93
        0
 40
1.125
309
GRIDFORMAT_END
 95
       32
302
GRIDFORMAT
  1
GRIDFORMAT_BEGIN
 90
        0
 91
        1
 62
     0
 92
       -2
340
8CA
 93
        0
 40
1.125
309
GRIDFORMAT_END
309
TABLEFORMAT_END
  1
CELLSTYLE_BEGIN
 90
        2
 91
        1
300
_HEADER
309
CELLSTYLE_END
300
CELLSTYLE
  1
TABLEFORMAT_BEGIN
 90
        5
170
     1
 91
        0
 92
        0
 62
   257
 93
        1
300
CONTENTFORMAT
  1
CONTENTFORMAT_BEGIN
 90
        0
 91
        0
 92
      512
 93
        0
300

 40
0.0
140
1.0
 94
        2
 62
     0
340
11
144
4.5
309
CONTENTFORMAT_END
171
     1
301
MARGIN
  1
CELLMARGIN_BEGIN
 40
1.5
 40
1.5
 40
1.5
 40
1.5
 40
4.5
 40
4.5
309
CELLMARGIN_END
 94
        6
 95
        1
302
GRIDFORMAT
  1
GRIDFORMAT_BEGIN
 90
        0
 91
        1
 62
     0
 92
       -2
340
8CA
 93
        0
 40
1.125
309
GRIDFORMAT_END
 95
        2
302
GRIDFORMAT
  1
GRIDFORMAT_BEGIN
 90
        0
 91
        1
 62
     0
 92
       -2
340
8CA
 93
        0
 40
1.125
309
GRIDFORMAT_END
 95
        4
302
GRIDFORMAT
  1
GRIDFORMAT_BEGIN
 90
        0
 91
        1
 62
     0
 92
       -2
340
8CA
 93
        0
 40
1.125
309
GRIDFORMAT_END
 95
        8
302
GRIDFORMAT
  1
GRIDFORMAT_BEGIN
 90
        0
 91
        1
 62
     0
 92
       -2
340
8CA
 93
        0
 40
1.125
309
GRIDFORMAT_END
 95
       16
302
GRIDFORMAT
  1
GRIDFORMAT_BEGIN
 90
        0
 91
        1
 62
     0
 92
       -2
340
8CA
 93
        0
 40
1.125
309
GRIDFORMAT_END
 95
       32
302
GRIDFORMAT
  1
GRIDFORMAT_BEGIN
 90
        0
 91
        1
 62
     0
 92
       -2
340
8CA
 93
        0
 40
1.125
309
GRIDFORMAT_END
309
TABLEFORMAT_END
  1
CELLSTYLE_BEGIN
 90
        3
 91
        2
300
_DATA
309
CELLSTYLE_END
  0
IMAGEDEF_REACTOR
  5
219
330
217
100
AcDbRasterImageDefReactor
 90
     2
330
217
  0
IMAGEDEF
  5
218
102
{ACAD_REACTORS
330
5E
330
219
102
}
330
5E
100
AcDbRasterImageDef
 90
     0
  1
WDVS mit Hartbekleidung_Aussenecke_7_1.tif
 10
395.000000
 20
405.000000
 11
0.002532
 21
0.002469
280
     1
281
     0
  0
ENDSEC
  0
EOF
